Oops, an error
Loading. Please wait.

A Wish Tab

version 3
version 3

Whole song

Interactive

4,620 views 1 this week
no commentswrite comment
1 2 3 4 5
please rate
add to favorites
launch autoscroll
font size
0
reset
how to read this tab
guitar tuner
Autoscroll
slow
fast
+/-
esc
set tempo
stop
Help us to improve Ultimate-Guitar.com Take our survey!
×
Author
Difficulty
aquaknight3 2,635
intermediate
Intro:
e-----1-------1-------1-------1-------1-------1-------1-------1---->
B------------------------------------------------------------------>
G---3---3---3---3---3---3---3---3---3---3---3---3---3---3---3---3-->
D-1-------0---------------0-------1-------0---------------0-------->
A-----------------3-------------------------------3---------------->
E------------------------------------------------------------------>

Verse 1:
e-----1-------1-------1-------1-------1-------1-------1-------1---->
B------------------------------------------------------------------>
G---3---3---3---3---3---3---3---3---3---3---3---3---3---3---3---3-->
D-1-------0---------------0-------1-------0---------------0-------->
A-----------------3-------------------------------3---------------->
E------------------------------------------------------------------>
I wish to feel smaller under your sheets. I wish for the whole truth every
time you speak.

e-----1-------1-------1-------1-------1-------1-------1-------1---->
B------------------------------------------------------------------>
G---3---3---3---3---3---3---3---3---3---3---3---3---3---3---3---3-->
D-1-------0---------------0-------1-------0---------------0-------->
A-----------------3-------------------------------3---------------->
E------------------------------------------------------------------>
I’m thinkin’ about how you care half as much for me While I watch you
arrive, smoke cigarettes, sleep

e-----1-------1-------1-------1-------1-------1-------1-------1---->
B------------------------------------------------------------------>
G---3---3---3---3---3---3---3---3---3---3---3---3---3---3---3---3-->
D-1-------0---------------0-------1-------0---------------0-------->
A-----------------3-------------------------------3---------------->
E------------------------------------------------------------------>
And I guess it doesn’t matter what I say or what I seem You stuck what I
felt for you in the pocket of your jeans

e-----1-------1-------1-------1-------1-------1-------1-------1---->
B------------------------------------------------------------------>
G---3---3---3---3---3---3---3---3---3---3---3---3---3---3---3---3-->
D-1-------0---------------0-------1-------0---------------0-------->
A-----------------3-------------------------------3---------------->
E------------------------------------------------------------------>
Ignoring me the morning after isn’t enough and I swear I’m gonna cry. I’m
sick of tryin’ to be tough.

Chorus:
e-----1-------1-------1-------1-------1-------1-------1-------1---->
B------------------------------------------------------------------>
G---3---3---3---3---3---3---3---3---3---3---3---3---3---3---3---3-->
D-1-------0-----------------------1-------0------------------------>
A-----------------4-------1-----------------------4-------1-------->
E------------------------------------------------------------------>
And my blood won’t stick To the confines of my veins.

e-----1-------1-------1-------1-------1-------1-------1-------1---->
B------------------------------------------------------------------>
G---3---3---3---3---3---3---3---3---3---3---3---3---3---3---3---3-->
D-1-------0-----------------------1-------0------------------------>
A-----------------4-------1-----------------------4-------1-------->
E------------------------------------------------------------------>
And your heart Is gonna tear mine away.

Verse 2:
e-----1-------1-------1-------1-------1-------1-------1-------1---->
B------------------------------------------------------------------>
G---3---3---3---3---3---3---3---3---3---3---3---3---3---3---3---3-->
D-1-------0---------------0-------1-------0---------------0-------->
A-----------------3-------------------------------3---------------->
E------------------------------------------------------------------>
And I wish to feel smaller under your hands, though you seem satisfied as
you slip mine down your pants.

e-----1-------1-------1-------1-------1-------1-------1-------1---->
B------------------------------------------------------------------>
G---3---3---3---3---3---3---3---3---3---3---3---3---3---3---3---3-->
D-1-------0---------------0-------1-------0---------------0-------->
A-----------------3-------------------------------3---------------->
E------------------------------------------------------------------>
And I’m thinkin’ about how you care half as much for me While you lift up
my shirt after asking politely.

e-----1-------1-------1-------1-------1-------1-------1-------1---->
B------------------------------------------------------------------>
G---3---3---3---3---3---3---3---3---3---3---3---3---3---3---3---3-->
D-1-------0---------------0-------1-------0---------------0-------->
A-----------------3-------------------------------3---------------->
E------------------------------------------------------------------>
And I guess it doesn’t matter what I am or pretend to be Cause it’s her
you’ll always love and it’s her I’ll always envy.

e-----1-------1-------1-------1-------1-------1-------1-------1---->
B------------------------------------------------------------------>
G---3---3---3---3---3---3---3---3---3---3---3---3---3---3---3---3-->
D-1-------0---------------0-------1-------0---------------0-------->
A-----------------3-------------------------------3---------------->
E------------------------------------------------------------------>
I want to end this now so dreams of you won’t keep me up. But I swear I’m
gonna cry. I’m sick of tryin’ to be tough.

Chorus 2:
e-----1-------1-------1-------1-------1-------1-------1-------1---->
B------------------------------------------------------------------>
G---3---3---3---3---3---3---3---3---3---3---3---3---3---3---3---3-->
D-1-------0-----------------------1-------0------------------------>
A-----------------4-------1-----------------------4-------1-------->
E------------------------------------------------------------------>
And my blood won’t stick to the confines of my veins.




e-----1-------1-------1-------1-------1-------1-------1---1~------->
B---------------------------------------------------------1~------->
G---3---3---3---3---3---3---3---3---3---3---3---3---3---3-2~------->
D-1-------0-----------------------1-------0---------------3~------->
A-----------------4-------1-----------------------4-------3~------->
E---------------------------------------------------------1~------->
And your heart Is gonna tear mine away.                  (F)

Bridge:
e-1---------------1---------------1---------------1---------------->
B---------4---------------4---------------4---------------4-------->
G-----3-------3-------3-------3-------3---------------3-------3---->
D-0---------------0---------------0---------------0---------------->
A---------3---------------3---------------3---------------3-------->
E------------------------------------------------------------------>
And it’s hard to find What I want When it’s buried beneath the biggest rock.

e-1---------------1---------------1---------------1---------------->
B---------4---------------4---------------4---------------4-------->
G-----3-------3-------3-------3-------3---------------3-------3---->
D-0---------------0---------------0---------------0---------------->
A---------3---------------3---------------3---------------3-------->
E------------------------------------------------------------------>
I could pay lots of money To help lift it with machines But I’m not sure
you’d cooperate.

e-1-------------------------------->
B---------4~----------------------->
G-----3---------------------------->
D-0-------------------------------->
A---------3~----------------------->
E---------------------------------->
Not sure you’d come clean.

---REPEAT VERSE 1

e-----1-------1-------1------->
B----------------------------->
G---3---3---3---3---3---3---3->
D-1-------0---------------0--->
A-----------------3----------->
E----------------------------->
Yeah, I swear I’m gonna cry. I’m sick of tryin’ to be tough.

---REPEAT CHORUS

e-----1-------1-------1-------1-------1-------1-------1------------>
B---------------------------------------------------------3~------->
G---3---3---3---3---3---3---3---3---3---3---3---3---3---3-3~------->
D-1-------0-----------------------1-------0---------------3~------->
A-----------------4-------1-----------------------4-------1~------->
E------------------------------------------------------------------>
Is gonna tear mine away                                  (Bb)
Suggest correction new What's this?
You can suggest a correction to this tab. Community and Mods will review your correction and vote to approve or reject it.
comments
We did not receive enough feedback on this tab! Please rate:
print report bad tab
1 2 3 4 5
guest
You may want to rate the tab now too:
select rating
Please do not post tabs as comments. Select "correction" instead!