Oops, an error
Loading. Please wait.

Boats And Birds Tab

version 1
version 1
80,062 views 39 this week
6 commentsread comments
1 2 3 4 5
x 17
add to favorites
launch autoscroll
font size
0
reset
how to read this tab
guitar tuner
Autoscroll
slow
fast
+/-
esc
set tempo
stop
Help us to improve Ultimate-Guitar.com Take our survey!
×
Author
verse:
T-----------------------------------------------------------------------------------------------------------------------|
-------8-----------------8----------------8-----------------8------------------8--------------8---------------8---------|
A------------0-----------------0-----------------0-----------------0-----------------0---------------0---------------0--|
------------------------------------------------------------------------------------------------------------------------|
B---7---------------7------------------------------------------------------7---------------5----------------------------|
---------------------------------------8-----------------8---------------------------------------------------8----------|


chorus:
T--------------------------------------------------------------|
------3------------3-----------3-----------3-------------------|
A----------0------------0-----------0-----------0--------------|
---------------------------------------------------------------|
B----------------------------3-----------3---------------------|
---2-----------3-----------------------------------------------|


bridge
T----------------------------------------------------------------------|
-------7-------------5-----------------------3--------3----------------|
A----------0--------------0--------------0-----------------0-----------|
---5------------3------------------------------------------------------|
B---------------------------------2_3-------------3--------------------|
Suggest correction
comments
print report bad tab
6 comments total. Showing first comments.
0 reply
emoxchico 10 Jul 14, 2006 10:19 PM

This is the real way to play the tab. This tab is stolen off Meredith's livejournal (http://gath-o3.livejournal.com/) that she linked to her myspace, pretty much saying "here are tabs to two of my songs and the lyrics to the rest of them". It's completely copied and pasted- you can tell because the sixth line of the bridge is not there.

Honestly, you don't need to 'fix up' the tab that she gives. This is the correct way to play it. I have no idea why someone gave it a 3. This one here is right on the money because the source is the person who wrote it. DUH. I can play it along with the track and it's perfect. So yea. End comment.

0 reply
fatally-x-yours 10 Sep 09, 2006 06:15 PM

this is a beautiful song, I love it! Thanks for the tab =]

0 reply
miseryforjoy 31 Nov 04, 2006 09:22 PM

Obviously a great tab if its by the writer... though she forgot to mention the capo on third. =)

guest
You may want to rate the tab now too:
select rating
Wanna post a correction for this tab? Suggest correction