Oops, an error
Loading. Please wait.

The People Who Raised Me Chords

4,176 views 6 this week
no commentswrite comment
1 2 3 4 5
1 last vote to show rating
add to favorites
launch autoscroll
font size
0
reset
transpose
0
reset
display chords
guitar tuner
Autoscroll
slow
fast
+/-
esc
set tempo
stop
Help us to improve Ultimate-Guitar.com Take our survey!
×
Ddim: xx0101
Asus: x02230
_____________


verse:
D, Ddim, Asus

ref:
G, A


_____________________________________________________________________________________


INTRO:
|----2-------1---1-------0-----------0-----------0-----------0---------------|
|--------3-----------0-------3-----------3-----------3-----------3-------3---|
|----2-----2-----1-----1---------2-----------2-----------2-----------2-------|
|--0---0-------0---0---------2-----2-----2-----2-----2-----2-----2-----2-----|
|--------------------------0---0-------0---0-------0---0-------0---0---------|
|----------------------------------------------------------------------------|


VERSE:
|----2-------2---2-------1---1-------1---1-------0-----|
|--------3-----------3-----------0-----------0---------|
|----2-----2-----2-----2-----1-----1-----1-----1-------|
|--0---0-------0---0-------0---0-------0---0-----------|
|------------------------------------------------------|
|------------------------------------------------------|

|------------0-----------0-----------0-----------------|
|----3-----------3-----------3-----------3-------3-----|
|--------2-----------2-----------2-----------2---------|
|----2-----2-----2-----2-----2-----2-----2-----2-------|
|--0---0-------0---0-------0---0-------0---0-----------|
|------------------------------------------------------|


REF:
|------------------------------------------------------|
|------------------------------------------------------|
|----4-------4---4-------6---6-------6---6-------4-----|
|--------5-----------5-----------7-----------7---------| 2x
|----5-----5-----5-----5-----7-----7-----7-----7-------|
|--3---3-------3---3-------5---5-------5---5-----------|


_____________________________________________________________________________________

i've been the wild one
i've run through the streets and i've suffered
i've been the quiet one
sequestered and smothered

but i won't mind no time spent to save me
just trying to be good to the people who raised me

it's been a strong year
with a bright, bright sun
from here the past looks cold
and the future seems a promising one

but i won't mind no time spent to save me
just trying to be good to the people who raised me
and glide through life without a meaning

on trails torn up between clouds and turf
i've wished for you for what it's worth
and i want to visit on the wind

and i want to visit on the wind
Suggest correction
Give kudos to tab author, rate the tab!
1 2 3 4 5
comments
print report bad tab
guest
You may want to rate the tab now too:
select rating
Wanna post a correction for this tab? Suggest correction