Oops, an error
Loading. Please wait.
4,173 views 1 this week
1 commentread comment
1 2 3 4 5
x 4
add to favorites
launch autoscroll
font size
0
reset
how to read this tab
guitar tuner
×
Best way to learn
"Wish"
Autoscroll
slow
fast
+/-
esc
set tempo
stop
Difficulty
intermediate
Tuning: Drop high E (tune it so it's in tune with fourth fret on the B)

Intro/Verse

-------2-------2-------0-------2---|
-----------------------------------|
----3-----3-3-----3-0-----0-3-----3|
---1-------0---------------0-------|
-------------------3---------------|
-----------------------------------|

Chorus

------2-------2-------2-------2---|
----------------------------------|
---3-----3-3-----3-3-----3-3-----3|
--1-------0-----------------------|
------------------3-------1-------|
----------------------------------|

Bridge

--2---0---2---0|
---------------|
--3---0---3---0|
--1-------1----|
------3-------3|
---------------|


On the bridge, it's not ABSOLUTELY MANDATORY to play the middle note. If you can't get 
in tempo, it sounds alright without it as well.

Also, I'm aware this isn't the exact strumming pattern used. If I figure it out better I 
re-tab it.

Any questions feel free to email me at for.miles @ gmail . com withoutt the spaces.
Suggest correction
comments
print report bad tab
1 comment total.
0 reply
Ikemoto 10 Feb 21, 2007 05:43 AM

This is me, btw.

guest
You may want to rate the tab now too:
select rating
Wanna post a correction for this tab? Suggest correction