Oops, an error
Loading. Please wait.

Highway Tune intro tab

version 1
version 1

Intro

  • ver 3 new
    This was done by ear, but I'm 99% certain about it.

Interactive

3,865 views 573 this week
4 commentsread comments
1 2 3 4 5
x 9
add to favorites
×
Save as Personal and add changes to this tab that will be seen only by you. Learn more ›
×
You can save this tab as Personal to edit and correct it or add notes. All changes will be seen only by you. Learn more »
launch autoscroll
font size
0
reset
how to read this tab
guitar tuner
edit
Autoscroll
slow
fast
+/-
esc
set tempo
stop
[Intro]
e|---------------------------------------------------------------------------|
B|---------------------------------------------------------------------------|
G|--------0------------------------------------------------------------------|
D|------2---2-0-2-------------0----------------------------------------------|  x3
A|---------------------------------------------------------------------------|
E|-0---------------3-0--0-4-3---3-0------------------------------------------|

e|---------------------------------------------------------------------------|
B|--------------------------5-----4------------------------------------------|
G|--------0-------------3\4---4-3----2p0-------------------------------------|
D|------2---2-0-2------------------------2p0---------------------------------|
A|---------------------------------------------------------------------------|
E|-----------------3-0-------------------------------------------------------|



************************************

| p  Pull-off
| \  Slide down

************************************

            
            
Suggest correction
Creating personal tab
Creating personal tab
You can edit any tab online and save it as your Personal.

You can edit, replace or remove any tab part or add personal notes – all changes will be seen only by you.

Personal tabs can be accessed anytime from any device, even offline.
Learn more »
There is a new version of this tab from 2 days ago which you may like more. Go check it out:
comments
print report bad tab
4 comments total. Showing first comments.
+3 reply
pgm8822 10 Jun 29, 2017 04:58 PM

kick ass tune

0 reply
kbkrause 10 Jul 11, 2017 10:51 PM

I need the ukulele version.

+1 reply
mcarol 10 3 days ago

I need the kazoo version.

guest
You may want to rate the tab now too:
select rating
Wanna post a correction for this tab? Suggest correction