Oops, an error
Loading. Please wait.

Redneck Woman tab

268 views 24 this week
no commentswrite comment
1 2 3 4 5
x 3
add to favorites
×
Save as Personal and add changes to this tab that will be seen only by you. Learn more ›
×
You can save this tab as Personal to edit and correct it or add notes. All changes will be seen only by you. Learn more »
launch autoscroll
font size
0
reset
how to read this tab
guitar tuner
edit
Autoscroll
slow
fast
+/-
esc
set tempo
stop
[Intro]
e|-----------------|
B|-----------------|
G|-----------------|
D|-----------------|
A|--0h2p0----------|
E|---------3b------|

e|---------------------------------|------------------------------------|
B|---------------------------------|------------------------------------|
G|---------------------------------|------------------------------------|
D|-----2--0--2--------2--0--0--2---|-----2--0--2-------2--0--0--2-------|
A|---------------------------------|------------------------------------|
E|--0--------------0---------------|--0-------------0-------------------|

e|---------------------------------|------------------------------------|
B|---------------------------------|------------------------------------|
G|---------------------------------|------------------------------------|
D|-----2--0--2--------2--0--0--2---|-----2--0--2---2--2-----------------|
A|---------------------------------|---------------2--2-----------------|
E|--0--------------0---------------|--0---------------------------------|

[Verse 1]
e|---------------------------------|------------------------------------|
B|---------------------------------|------------------------------------|
G|---------------------------------|------------------------------------|
D|--2--2--2--2--2--2-------2-------|--2--2--2--2--2--2-------2----------|
A|--2--2--4--4--2--2--2h4----------|--2--2--4--4--2--2--2h4-------------|
E|----------------------------3b---|----------------------------3b------|

e|---------------------------------|------------------------------------|
B|---------------------------------|------------------------------------|
G|---------------------------------|------------------------------------|
D|--2--2--2--2--2--2---------------|-----0-----0----0----0--------------|
A|--2--2--4--4--2--2--0h2p0--------|------------------------------------|
E|----------------------------3b---|--0-----2----3-----4----------------|


e|---------------------------------|------------------------------------|
B|---------------------------------|------------------------------------|
G|--2--2--2--2--2--2-------2-------|--2--2--2--2--2---------------------|
D|--2--2--4--4--2--2--2h4----------|--2--2--4--4--2--0h2p0--------------|
A|----------------------------3b---|------------------------0h2p0-------|
E|---------------------------------|-------------------------------3b---|

e|---------------------------------|------------------------------------|
B|---------------------------------|------------------------------------|
G|---------------------------------|------------------------------------|
D|--2--2--2--2--2--2-------2-------|--2--2--2--2--2---------------------|
A|--2--2--4--4--2--2--2h4----------|--2--2--4--4--2--2-----0--1---------|
E|----------------------------3b---|--------------------4---------------|

e|---------------------------------|------------------------------------|
B|--------0------------------------|--------0---------------------------|
G|-----------2---------------------|-----------2------------------------|
D|-----1--------1------------------|-----1--------1---------------------|
A|--2------------------------------|--2---------------------------------|
E|---------------------------------|------------------------------------|

e|---------------------------------|------------------------------------|
B|--------0------------------------|--------0---------------------------|
G|-----------2---------------------|-----------2------------------------|
D|-----1--------1------------------|-----1--------1---------------------|
A|--2------------------------------|--2---------------------------------|
E|---------------------------------|------------------------------------|

e|---------------------------------|------------------------------------|
B|--------2------------------------|--------3---------------------------|
G|-----------0---------------------|-----------0------------------------|
D|-----2--------2------------------|-----2--------2---------------------|
A|--0------------------------------|--0---------------------------------|
E|---------------------------------|------------------------------------|

e|---------------------------------|------------------------------------|
B|--2------------------------------|------------------------------------|
G|--0------------------------------|------------------------------------|
D|--2------------------------------|------------------------------------|
A|--0------------------------------|------------------------------------|
E|---------------------------------|------------------------------------|

[Verse 2]
e|---------------------------------|------------------------------------|
B|---------------------------------|------------------------------------|
G|---------------------------------|------------------------------------|
D|--2--2--2--2--2--2-------2-------|--2--2--2--2--2--2-------2----------|
A|--2--2--4--4--2--2--2h4----------|--2--2--4--4--2--2--2h4-------------|
E|----------------------------3b---|----------------------------3b------|

e|---------------------------------|------------------------------------|
B|---------------------------------|------------------------------------|
G|---------------------------------|------------------------------------|
D|--2--2--2--2--2--2---------------|-----0-----0----0----0--------------|
A|--2--2--4--4--2--2--0h2p0--------|------------------------------------|
E|----------------------------3b---|--0-----2----3-----4----------------|

e|---------------------------------|------------------------------------|
B|---------------------------------|------------------------------------|
G|--2--2--2--2--2--2--2--2---------|--2--2--2--2--2--2--2--2------------|
D|--2--2--4--4--5--5--4--4---------|--2--2--4--4--5--5--4--4------------|
A|---------------------------------|------------------------------------|
E|---------------------------------|------------------------------------|

e|---------------------------------|------------------------------------|
B|---------------------------------|------------------------------------|
G|---------------------------------|------------------------------------|
D|--2--2--2--2--2--2--2--2---------|--2--2--2--2--2---------------------|
A|--2--2--4--4--5--5--4--4---------|--2--2--4--4--2--2-----0--1---------|
E|---------------------------------|--------------------4---------------|

e|---------------------------------|------------------------------------|
B|--------0------------------------|--------0---------------------------|
G|-----------2---------------------|-----------2------------------------|
D|-----1--------1------------------|-----1--------1---------------------|
A|--2------------------------------|--2---------------------------------|
E|---------------------------------|------------------------------------|

e|---------------------------------|------------------------------------|
B|--------0------------------------|--------0---------------------------|
G|-----------2---------------------|-----------2------------------------|
D|-----1--------1------------------|-----1--------1---------------------|
A|--2------------------------------|--2---------------------------------|
E|---------------------------------|------------------------------------|

e|---------------------------------|------------------------------------|
B|--2------------------------------|------------------------------------|
G|--0------------------------------|------------------------------------|
D|--2------------------------------|------------------------------------|
A|--0------------------------------|------------------------------------|
E|---------------------------------|------------------------------------|

e|---------------------------------|------------------------------------|
B|--2-------------2----------------|--2--------------2------------------|
G|--0-------------0----------------|--0--------------0------------------|
D|--2-------------2----------------|--2--------------2------------------|
A|--0-------------0----------------|--0--------------0------------------|
E|---------------------------------|--------------------------3b--------|

e|---------------------------------|------------------------------------|
B|---------------------------------|------------------------------------|
G|---------------------------------|------------------------------------|
D|-----2--0--2--------2--0--0--2---|-----2--0--2~-----------------------|
A|---------------------------------|------------------------------------|
E|--0--------------0---------------|--0---------------------------------|

[Verse 3 & 4]
e|---------------------------------|------------------------------------|
B|---------------------------------|------------------------------------|
G|---------------------------------|------------------------------------|
D|--2--2--2--2--2--2-------2-------|--2--2--2--2--2--2-------2----------|
A|--2--2--4--4--2--2--2h4----------|--2--2--4--4--2--2--2h4-------------|
E|----------------------------3b---|----------------------------3b------|

e|---------------------------------|------------------------------------|
B|---------------------------------|------------------------------------|
G|---------------------------------|------------------------------------|
D|--2--2--2--2--2--2---------------|-----0-----0----0----0--------------|
A|--2--2--4--4--2--2--0h2p0--------|------------------------------------|
E|----------------------------3b---|--0-----2----3-----4----------------|

e|---------------------------------|------------------------------------|
B|---------------------------------|------------------------------------|
G|--2--2--2--2--2--2-------2-------|--2--2--2--2--2---------------------|
D|--2--2--4--4--2--2--2h4----------|--2--2--4--4--2--0h2p0--------------|
A|----------------------------3b---|------------------------0h2p0-------|
E|---------------------------------|-------------------------------3b---|

e|---------------------------------|------------------------------------|
B|---------------------------------|------------------------------------|
G|---------------------------------|------------------------------------|
D|--2--2--2--2--2--2-------2-------|--2--2--2--2--2---------------------|
A|--2--2--4--4--2--2--2h4----------|--2--2--4--4--2--2-----0--1---------|
E|----------------------------3b---|--------------------4---------------|

e|---------------------------------|------------------------------------|
B|--------0------------------------|--------0---------------------------|
G|-----------2---------------------|-----------2------------------------|
D|-----1--------1------------------|-----1--------1---------------------|
A|--2------------------------------|--2---------------------------------|
E|---------------------------------|------------------------------------|

e|---------------------------------|------------------------------------|
B|--------0------------------------|--------0---------------------------|
G|-----------2---------------------|-----------2------------------------|
D|-----1--------1------------------|-----1--------1---------------------|
A|--2------------------------------|--2---------------------------------|
E|---------------------------------|------------------------------------|

e|---------------------------------|------------------------------------|
B|--------2------------------------|--------3---------------------------|
G|-----------0---------------------|-----------0------------------------|
D|-----2--------2------------------|-----2--------2---------------------|
A|--0------------------------------|--0---------------------------------|
E|---------------------------------|------------------------------------|

e|---------------------------------|------------------------------------|
B|--------2------------------------|--------2---------------------------|
G|-----------0---------------------|-----------0------------------------|
D|-----2--------2------------------|-----2--------2---------------------|
A|--0------------------------------|--0---------------------------------|
E|---------------------------------|------------------------------------|

[Solo]
e|---------------------------------|------------------------------------|
B|---------------------------------|--2--1--1--------2--1--1-------2--2-|
G|---------------------------------|--2--1--2p1------2--1--2p1-----2--2-|
D|--2--2--2--2--2--2---------------|------------------------------------|
A|--2--2--4--4--2--2---------------|------------------------------------|
E|---------------------------------|------------------------------------|

    t         t         t         t           t         t         t         t
e|-----------------------------------------|---------------------------------------|
B|-----------------------------------------|---------------------------------------|
G|--6p2p1h2---6p2p1h2---6p2p1h2---6p2p1h2--|--6p3p2h3---7p4p3h4---8p4p3h4---9p4p3--|
D|-----------------------------------------|---------------------------------------|
A|-----------------------------------------|---------------------------------------|
E|-----------------------------------------|---------------------------------------|

e|---------------------------------|--------12--------------------------|
B|---------------------------------|------------------------------------|
G|--/9~----------------------------|--/13-------------------------------|
D|---------------------------------|------------------------------------|
A|---------------------------------|------------------------------------|
E|---------------------------------|------------------------------------|

e|---------------------------------|------------------------------------|
B|---------------------------------|------------------------------------|
G|--2--2--2--2--2--2---------------|--2--2--2--2--2--2--2--2------------|
D|--2--2--4--4--5--5--4b5--4p2-----|--2--2--4--4--2--2--4--4------------|
A|---------------------------------|------------------------------------|
E|---------------------------------|------------------------------------|

e|---------------------------------|---3-------3-------3--3--5p3--3-----|
B|---------------------------------|------5-------3h5----------------5--|
G|---------------------------------|------------------------------------|
D|--------------4--4--4--4---------|------------------------------------|
A|--4--4--4--4--2--2--2--2---------|------------------------------------|
E|--2--2--2--2---------------------|------------------------------------|

e|-----3---------------------------------|--3---------------3-------3-----3-------|
B|--5------3--5--5---5--3----5--3-----5--|--------3--5--5------3h5-----5-----3h5--|
G|-------4-----------------4-------4-----|-----4----------------------------------|
D|---------------------------------------|----------------------------------------|
A|---------------------------------------|----------------------------------------|
E|---------------------------------------|----------------------------------------|

e|--3------------------------------|
B|--3------------------------------|
G|---------------------------------|
D|---------------------------------|
A|---------------------------------|
E|----------------------------3b---|

[Outro]
e|---------------------------------|------------------------------------|
B|---------------------------------|------------------------------------|
G|--2--2--2--2--2--2-------2-------|--2--2--2--2--2--2--2--2------------|
D|--2--2--4--4--2--2--2h4----------|--2--2--4--4--2--2--4--4------------|
A|----------------------------3b---|------------------------------------|
E|---------------------------------|------------------------------------|

e|---------------------------------|------------------------------------|
B|---------------------------------|------------------------------------|
G|---------------------------------|------------------------------------|
D|--2--2--2--2--2--2-------2-------|--2--2--2--2--2---------------------|
A|--2--2--4--4--2--2--2h4----------|--2--2--4--4--2--2-----0--1---------|
E|----------------------------3b---|--------------------4---------------|

e|---------------------------------|------------------------------------|
B|--------0------------------------|--------0---------------------------|
G|-----------2---------------------|-----------2------------------------|
D|-----1--------1------------------|-----1--------1---------------------|
A|--2------------------------------|--2---------------------------------|
E|---------------------------------|------------------------------------|

e|---------------------------------|------------------------------------|
B|--------0------------------------|--------0---------------------------|
G|-----------2---------------------|-----------2------------------------|
D|-----1--------1------------------|-----1--------1---------------------|
A|--2------------------------------|--2---------------------------------|
E|---------------------------------|------------------------------------|

e|---------------------------------|------------------------------------|
B|--2------------------------------|------------------------------------|
G|--0------------------------------|------------------------------------|
D|--2------------------------------|------------------------------------|
A|--0------------------------------|------------------------------------|
E|---------------------------------|------------------------------------|

e|---------------------------------|------------------------------------|
B|--2-------------2----------------|--2--------------2------------------|
G|--0-------------0----------------|--0--------------0------------------|
D|--2-------------2----------------|--2--------------2------------------|
A|--0-------------0----------------|--0--------------0------------------|
E|---------------------------------|--------------------------3b--------|

e|---------------------------------|------------------------------------|
B|---------------------------------|------------------------------------|
G|---------------------------------|------------------------------------|
D|-----2--0--2--------2--0--0--2---|-----2--0--2-------2--0--0--2-------|
A|---------------------------------|------------------------------------|
E|--0--------------0---------------|--0-------------0-------------------|

e|---------------------------------|------------------------------------|
B|---------------------------------|------------------------------------|
G|---------------------------------|--0h2p0-----------------------------|
D|-----2--0--2--------2--0--0--2---|---------0h2p0----------------------|
A|---------------------------------|----------------0h2p0---------------|
E|--0--------------0---------------|-----------------------3b-----------|

e|--0------------------------------|------------------------------------|
B|--0------------------------------|------------------------------------|
G|--1------------------------------|------------------------------------|
D|--0------------------------------|------------------------------------|
A|--2------------------------------|------------------------------------|
E|---------------------------------|------------------------------------|

************************************

| h  Hammer-on
| p  Pull-off
| b  Bend
| ~  Vibrato
| /  Slide up

************************************
Suggest correction
Creating personal tab
Creating personal tab
You can edit any tab online and save it as your Personal.

You can edit, replace or remove any tab part or add personal notes – all changes will be seen only by you.

Personal tabs can be accessed anytime from any device, even offline.
Learn more »
Give kudos to tab author, rate the tab!
1 2 3 4 5
comments
print report bad tab
guest
You may want to rate the tab now too:
select rating
Wanna post a correction for this tab? Suggest correction