Oops, an error
Loading. Please wait.

Drive Acoustic tab

760 views 9 this week
no commentswrite comment
1 2 3 4 5
1 last vote to show rating
add to favorites
×
Save as Personal and add changes to this tab that will be seen only by you. Learn more ›
×
You can save this tab as Personal to edit and correct it or add notes. All changes will be seen only by you. Learn more »
launch autoscroll
font size
0
reset
how to read this tab
guitar tuner
edit
Autoscroll
slow
fast
+/-
esc
set tempo
stop
Drive
by Gretta Ray
Tuning is E B G D G E
Tab relative to capo position. 

[Intro] 
(Palm mute every eighth note in between strums)
   [ 1 + 2 + 3 + 4 + 1 + 2 + 3 + 4 + ]
E |--x---x---x-x---x---x-x---x---x---|
B |--x---x---x-x---x---x-x---x---x---|
G |--x---x---x-x---x---x-x---x---x---|
D |--0---0---0-0---2---2-2---2---2---|
G |--0---0---0-0---0---0-0---0---0---|
E |--3---3---3-3---3---3-3---3---3---|

   [ 1 + 2 + 3 + 4 + 1 + 2 + 3 + 4 + ]
E |--x---x---x-x---x---x-x---x---x---|
B |--x---x---x-x---x---x-x---x---x---|
G |--x---x---x-x---x---x-x---x---x---|
D |--4---4---4-4---2---2-2---2---2---|
G |--0---0---0-0---0---0-0---0---0---|
E |--3---3---3-3---3---3-3---3---3---|

[Verse 1]
   [ 1 + 2 + 3 + 4 + 1 + 2 + 3 + 4 + ]
E |--3-3-3-3-3-3-3-3-3-3-3-3-3-3-3-3-|
B |--3-3-3-3-3-3-3-3-3-3-3-3-3-3-3-3-|
G |--0-0-0-0-0-0-0-0-0-0-0-0-0-0-0-0-|
D |--0-0-0-0-0-0-0-0-0-0-0-0-0-0-0-0-|
G |--0-0-0-0-0-0-0-0-0-0-0-0-0-0-0-0-|
E |--3-3-3-3-3-3-3-3-3-3-3-3-3-3-2-2-|

(I've been spaced out...In an absent dream that...)
   [ 1 + 2 + 3 + 4 + 1 + 2 + 3 + 4 + ]
E |--3-3-3-3-3-3-3-3-3-3-3-3-3-3-3-3-|
B |--3-3-3-3-3-3-3-3-3-3-3-3-3-3-3-3-|
G |--0-0-0-0-0-0-0-0-0-0-0-0-0-0-0-0-|
D |--0-0-0-0-0-0-0-0-0-0-0-0-0-0-0-0-|
G |--0-0-0-0-0-0-0-0-0-0-0-0-0-0-0-0-|
E |--0-0-0-0-0-0-0-0-0-0-0-0-0-0-0-0-|

(branched out of the thought of you and me....)
   [ 1 + 2 + 3 + 4 + 1 + 2 + 3 + 4 + ]
E |--3-3-3-3-5-5-5-5-5-5-5-5-5-5-5-5-|
B |--3-3-3-3-5-5-5-5-5-5-5-5-5-5-5-5-|
G |--0-0-0-0-0-0-0-0-0-0-0-0-0-0-0-0-|
D |--0-0-0-0-0-0-0-0-0-0-0-0-0-0-0-0-|
G |--2-2-2-2-4-4-4-4-5-5-5-5-5-5-5-4-|
E |--x-x-x-x-x-x-x-x-x-x-x-x-x-x-x-x-|

(It started out like a seed...)
   [ 1 + 2 + 3 + 4 + 1 + 2 + 3 + 4 + ]
E |--3-3-3-3-5-5-5-5-5-5-5-5-5-5-5-5-|
B |--3-3-3-3-5-5-5-5-5-5-5-5-5-5-5-5-|
G |--0-0-0-0-0-0-0-0-0-0-0-0-0-0-0-0-|
D |--0-0-0-0-0-0-0-0-0-0-0-0-0-0-0-0-|
G |--2-2-2-2-4-4-4-4-5-5-5-5-5-5-5-5-|
E |--x-x-x-x-x-x-x-x-x-x-x-x-x-x-x-x-|

(And then it grew like a tree...)
   [ 1 + 2 + 3 + 4 + 1 + 2 + 3 + 4 + ]
E |--3-3-3-3-3-3-3-3-3-3-3-3-3-3-3-3-|
B |--3-3-3-3-3-3-3-3-3-3-3-3-3-3-3-3-|
G |--0-0-0-0-0-0-0-0-0-0-0-0-0-0-0-0-|
D |--0-0-0-0-0-0-0-0-0-0-0-0-0-0-0-0-|
G |--0-0-0-0-0-0-0-0-0-0-0-0-0-0-0-0-|
E |--3-3-3-3-3-3-3-3-3-3-3-3-3-3-2-2-|

(Never joined at the hip... No, I barely see you or know...)
   [ 1 + 2 + 3 + 4 + 1 + 2 + 3 + 4 + ]
E |--3-3-3-3-3-3-3-3-3-3-3-3-3-3-3-3-|
B |--3-3-3-3-3-3-3-3-3-3-3-3-3-3-3-3-|
G |--0-0-0-0-0-0-0-0-0-0-0-0-0-0-0-0-|
D |--0-0-0-0-0-0-0-0-0-0-0-0-0-0-0-0-|
G |--0-0-0-0-0-0-0-0-0-0-0-0-0-0-0-0-|
E |--0-0-0-0-0-0-0-0-0-0-0-0-0-0-0-0-|

(you but I feel like I do...)
   [ 1 + 2 + 3 + 4 + 1 + 2 + 3 + 4 + ]
E |--3-3-3-3-5-5-5-5-5-5-5-5-5-5-5-5-|
B |--3-3-3-3-5-5-5-5-5-5-5-5-5-5-5-5-|
G |--0-0-0-0-0-0-0-0-0-0-0-0-0-0-0-0-|
D |--0-0-0-0-0-0-0-0-0-0-0-0-0-0-0-0-|
G |--2-2-2-2-4-4-4-4-5-5-5-5-5-5-5-4-|
E |--x-x-x-x-x-x-x-x-x-x-x-x-x-x-x-x-|

(Now I'm invested I am captivated and consumed...)
   [ 1 + 2 + 3 + 4 + 1 + 2 + 3 + 4 + ]
E |--3-3-3-3-5-5-5-5-5-5-5-5-5-5-5-5-|
B |--3-3-3-3-5-5-5-5-5-5-5-5-5-5-5-5-|
G |--0-0-0-0-0-0-0-0-0-0-0-0-0-0-0-0-|
D |--0-0-0-0-0-0-0-0-0-0-0-0-0-0-0-0-|
G |--2-2-2-2-4-4-4-4-5-5-5-5-5-5-5-5-|
E |--x-x-x-x-x-x-x-x-x-x-x-x-x-x-x-x-|
(Seems you're my latest muse)

[Verse 2]
   [ 1 + 2 + 3 + 4 + 1 + 2 + 3 + 4 + ]
E |--3-3-3-3-3-3-3-3-3-3-3-3-3-3-3-3-|
B |--3-3-3-3-3-3-3-3-3-3-3-3-3-3-3-3-|
G |--0-0-0-0-0-0-0-0-0-0-0-0-0-0-0-0-|
D |--0-0-0-0-0-0-0-0-0-0-0-0-0-0-0-0-|
G |--0-0-0-0-0-0-0-0-0-0-0-0-0-0-0-0-|
E |--3-3-3-3-3-3-3-3-3-3-3-3-3-3-3-3-|

(All of your love is way too much for me to ask of you... but these)
   [ 1 + 2 + 3 + 4 + 1 + 2 + 3 + 4 + ]
E |--3-3-3-3-3-3-3-3-3-3-3-3-3-3-3-3-|
B |--3-3-3-3-3-3-3-3-3-3-3-3-3-3-3-3-|
G |--0-0-0-0-0-0-0-0-0-0-0-0-0-0-0-0-|
D |--0-0-0-0-0-0-0-0-0-0-0-0-0-0-0-0-|
G |--2-2-2-2-2-2-2-2-2-2-2-2-2-2-2-2-|
E |--x-x-x-x-x-x-x-x-x-x-x-x-x-x-x-x-|

(thoughts are inescapable...When they're illustrating you)
   [ 1 + 2 + 3 + 4 + 1 + 2 + 3 + 4 + ]
E |--5-5-5-5-5-5-5-5-5-5-5-5-5-5-5-5-|
B |--5-5-5-5-5-5-5-5-5-5-5-5-5-5-5-5-|
G |--0-0-0-0-0-0-0-0-0-0-0-0-0-0-0-0-|
D |--0-0-0-0-0-0-0-0-0-0-0-0-0-0-0-0-|
G |--4-4-4-4-4-4-4-4-4-4-4-4-4-4-4-4-|
E |--x-x-x-x-x-x-x-x-x-x-x-x-x-x-x-x-|

(falling through the floor when I walk in the room...)
   [ 1 + 2 + 3 + 4 + 1 + 2 + 3 + 4 + ]
E |--5-5-5-5-5-5-5-5-5-5-5-5-5-5-5-5-|
B |--5-5-5-5-5-5-5-5-5-5-5-5-5-5-5-5-|
G |--0-0-0-0-0-0-0-0-0-0-0-0-0-0-0-0-|
D |--0-0-0-0-0-0-0-0-0-0-0-0-0-0-0-0-|
G |--5-5-5-5-5-5-5-5-5-5-5-5-5-5-5-5-|
E |--x-x-x-x-x-x-x-x-x-x-x-x-x-x-x-x-|

(Making your tired eyes widen and your cheeks turn rouge...)
   [ 1 + 2 + 3 + 4 + 1 + 2 + 3 + 4 + ]
E |--3-3-3-3-3-3-3-3-3-3-3-3-3-3-3-3-|
B |--3-3-3-3-3-3-3-3-3-3-3-3-3-3-3-3-|
G |--0-0-0-0-0-0-0-0-0-0-0-0-0-0-0-0-|
D |--0-0-0-0-0-0-0-0-0-0-0-0-0-0-0-0-|
G |--0-0-0-0-0-0-0-0-0-0-0-0-0-0-0-0-|
E |--3-3-3-3-3-3-3-3-3-3-3-3-3-3-3-3-|

(And sure your taste and touch are two things that I want...but babe)
   [ 1 + 2 + 3 + 4 + 1 + 2 + 3 + 4 + ]
E |--3-3-3-3-3-3-3-3-3-3-3-3-3-3-3-3-|
B |--3-3-3-3-3-3-3-3-3-3-3-3-3-3-3-3-|
G |--0-0-0-0-0-0-0-0-0-0-0-0-0-0-0-0-|
D |--0-0-0-0-0-0-0-0-0-0-0-0-0-0-0-0-|
G |--2-2-2-2-2-2-2-2-2-2-2-2-2-2-2-2-|
E |--x-x-x-x-x-x-x-x-x-x-x-x-x-x-x-x-|

(neither are what I ponder on the most...)
   [ 1 + 2 + 3 + 4 + 1 + 2 + 3 + 4 + ]
E |--5-5-5-5-5-5-5-5-5-5-5-5-5-5-5-5-|
B |--5-5-5-5-5-5-5-5-5-5-5-5-5-5-5-5-|
G |--0-0-0-0-0-0-0-0-0-0-0-0-0-0-0-0-|
D |--0-0-0-0-0-0-0-0-0-0-0-0-0-0-0-0-|
G |--4-4-4-4-4-4-4-4-4-4-4-4-4-4-4-4-|
E |--x-x-x-x-x-x-x-x-x-x-x-x-x-x-x-x-|

(I see me heading out onto the road as a temporary load...)
   [ 1 + 2 + 3 + 4 + 1 + 2 + 3 + 4 + ]
E |--5-5-5-5-5-5-5-5-5-5-5-5-5-5-5-5-|
B |--5-5-5-5-5-5-5-5-5-5-5-5-5-5-5-5-|
G |--0-0-0-0-0-0-0-0-0-0-0-0-0-0-0-0-|
D |--0-0-0-0-0-0-0-0-0-0-0-0-0-0-0-0-|
G |--5-5-5-5-5-5-5-5-5-5-5-5-5-5-5-5-|
E |--x-x-x-x-x-x-x-x-x-x-x-x-x-x-x-x-|
(Such a vivid vision that makes me wanna know...)

[Chorus]
   [ 1 + 2 + 3 + 4 + 1 + 2 + 3 + 4 + ]
E |--3-3-3-3-3-3-3-3-3-3-3-3-3-3-3-3-|
B |--3-3-3-3-3-3-3-3-3-3-3-3-3-3-3-3-|
G |--0-0-0-0-0-0-0-0-0-0-0-0-0-0-0-0-|
D |--0-0-0-0-0-0-0-0-0-0-0-0-0-0-0-0-|
G |--0-0-0-0-0-0-0-0-0-0-0-0-0-0-0-0-|
E |--3-3-3-3-3-3-3-3-3-3-3-3-3-3-3-3-|

(Do you want to, do you want to, do you want to drive?)
   [ 1 + 2 + 3 + 4 + 1 + 2 + 3 + 4 + ]
E |--3-3-3-3-5-5-5-5-5-5-5-5-5-5-5-5-|
B |--3-3-3-3-5-5-5-5-5-5-5-5-5-5-5-5-|
G |--0-0-0-0-0-0-0-0-0-0-0-0-0-0-0-0-|
D |--0-0-0-0-0-0-0-0-0-0-0-0-0-0-0-0-|
G |--2-2-2-2-4-4-4-4-5-5-5-5-5-5-5-5-|
E |--x-x-x-x-x-x-x-x-x-x-x-x-x-x-x-x-|

(Say you want nobody's love and company but mine...)
   [ 1 + 2 + 3 + 4 + 1 + 2 + 3 + 4 + ]
E |--3-3-3-3-3-3-3-3-3-3-3-3-3-3-3-3-|
B |--3-3-3-3-3-3-3-3-3-3-3-3-3-3-3-3-|
G |--0-0-0-0-0-0-0-0-0-0-0-0-0-0-0-0-|
D |--0-0-0-0-0-0-0-0-0-0-0-0-0-0-0-0-|
G |--0-0-0-0-0-0-0-0-0-0-0-0-0-0-0-0-|
E |--3-3-3-3-3-3-3-3-3-3-3-3-3-3-3-3-|

(Do you want to, do you want to, do you want to drive?)
   [ 1 + 2 + 3 + 4 + 1 + 2 + 3 + 4 + ]
E |--3-3-3-3-5-5-5-5-5-5-5-5-5-5-5-5-|
B |--3-3-3-3-5-5-5-5-5-5-5-5-5-5-5-5-|
G |--0-0-0-0-0-0-0-0-0-0-0-0-0-0-0-0-|
D |--0-0-0-0-0-0-0-0-0-0-0-0-0-0-0-0-|
G |--2-2-2-2-4-4-4-4-5-5-5-5-5-5-5-5-|
E |--x-x-x-x-x-x-x-x-x-x-x-x-x-x-x-x-|

(Say you never met a woman that made you feel this alive...)
   [ 1 + 2 + 3 + 4 + 1 + 2 + 3 + 4 + ]
E |--0-0-0-0-0-0-0-0/0-0-0-0-0-0-0-0-|
B |--1-1-1-1-1-1-1-1/3-3-3-3-3-3-3-3-|
G |--0-0-0-0-0-0-0-0/0-0-0-0-0-0-0-0-|
D |--2-2-2-2-2-2-2-2/4-4-4-4-4-4-4-4-|
G |--2-2-2-2-2-2-2-2/4-4-4-4-4-4-4-4-|
E |--x-x-x-x-x-x-x-x-x-x-x-x-x-x-x-x-|

(I will lose my mind..I've come to find whenever in...)
   [ 1 + 2 + 3 + 4 + ]
E |--0-0-0-0-0-0-0-0-|
B |--3-3-3-3-3-3-3-3-|
G |--0-0-0-0-0-0-0-0-|
D |--5-5-5-5-5-5-5-5-|
G |--5-5-5-5-5-5-5-5-|
E |--x-x-x-x-x-x-x-x-|

(your presence I am present...)
   [ 1 + 2 + 3 + 4 + ]
E |--0-0-0-0-0-0-0-0-|
B |--0-0-0-0-0-0-0-0-|
G |--0-0-0-0-0-0-0-0-|
D |--7-7-7-7-7-7-7-7-|
G |--7-7-7-7-7-7-7-7-|
E |--x-x-x-x-x-x-x-x-|

(Imagination has me )
   [ 1 + 2 + 3 + 4 + 1 + 2 + 3 + 4 + ]
E |--0-0-0-0-0-0-0-0/0-0-0-0-0-0-0-0-|
B |--1-1-1-1-1-1-1-1/3-3-3-3-3-3-3-3-|
G |--0-0-0-0-0-0-0-0/0-0-0-0-0-0-0-0-|
D |--2-2-2-2-2-2-2-2/4-4-4-4-4-4-4-4-|
G |--2-2-2-2-2-2-2-2/4-4-4-4-4-4-4-4-|
E |--x-x-x-x-x-x-x-x-x-x-x-x-x-x-x-x-|

(seated at your side..It's nothing short of bliss)
   [ 1 + 2 + 3 + 4 + ]
E |--0-0-0-0-0-0-0-0-|
B |--3-3-3-3-3-3-3-3-|
G |--0-0-0-0-0-0-0-0-|
D |--5-5-5-5-5-5-5-5-|
G |--5-5-5-5-5-5-5-5-|
E |--x-x-x-x-x-x-x-x-|

(It's the best thing in the worst way)
   [ 1 + 2 + 3 + 4 + ]
E |--0-0-0-0-0-0-0-0-|
B |--0-0-0-0-0-0-0-0-|
G |--0-0-0-0-0-0-0-0-|
D |--7-7-7-7-7-7-7-7-|
G |--7-7-7-7-7-7-7-7-|
E |--x-x-x-x-x-x-x-x-|
(Loving you like this, loving you like this)

[Repeat Intro Riff]

[Verse 2]
[same pattern as Verse 1]
   [ 1 + 2 + 3 + 4 + 1 + 2 + 3 + 4 + ]
E |--3-3-3-3-3-3-3-3-3-3-3-3-3-3-3-3-|
B |--3-3-3-3-3-3-3-3-3-3-3-3-3-3-3-3-|
G |--0-0-0-0-0-0-0-0-0-0-0-0-0-0-0-0-|
D |--0-0-0-0-0-0-0-0-0-0-0-0-0-0-0-0-|
G |--0-0-0-0-0-0-0-0-0-0-0-0-0-0-0-0-|
E |--3-3-3-3-3-3-3-3-3-3-3-3-3-3-2-2-|

(Blazing street lights, through the window glass)
   [ 1 + 2 + 3 + 4 + 1 + 2 + 3 + 4 + ]
E |--3-3-3-3-3-3-3-3-3-3-3-3-3-3-3-3-|
B |--3-3-3-3-3-3-3-3-3-3-3-3-3-3-3-3-|
G |--0-0-0-0-0-0-0-0-0-0-0-0-0-0-0-0-|
D |--0-0-0-0-0-0-0-0-0-0-0-0-0-0-0-0-|
G |--0-0-0-0-0-0-0-0-0-0-0-0-0-0-0-0-|
E |--0-0-0-0-0-0-0-0-0-0-0-0-0-0-0-0-|

(Your feet on the gas, mine up on the dash, And though you're driving too fast)
   [ 1 + 2 + 3 + 4 + 1 + 2 + 3 + 4 + ]
E |--3-3-3-3-5-5-5-5-5-5-5-5-5-5-5-5-|
B |--3-3-3-3-5-5-5-5-5-5-5-5-5-5-5-5-|
G |--0-0-0-0-0-0-0-0-0-0-0-0-0-0-0-0-|
D |--0-0-0-0-0-0-0-0-0-0-0-0-0-0-0-0-|
G |--2-2-2-2-4-4-4-4-5-5-5-5-5-5-5-5-|
E |--x-x-x-x-x-x-x-x-x-x-x-x-x-x-x-x-|

(All the world is still...)
   [ 1 + 2 + 3 + 4 + 1 + 2 + 3 + 4 + ]
E |--3-3-3-3-3-3-3-3-3-3-3-3-3-3-3-3-|
B |--3-3-3-3-3-3-3-3-3-3-3-3-3-3-3-3-|
G |--0-0-0-0-0-0-0-0-0-0-0-0-0-0-0-0-|
D |--0-0-0-0-0-0-0-0-0-0-0-0-0-0-0-0-|
G |--0-0-0-0-0-0-0-0-0-0-0-0-0-0-0-0-|
E |--3-3-3-3-3-3-3-3-3-3-3-3-3-3-3-3-|

(Imagery such as this is symptomatic, you can call me a fanatic...)
   [ 1 + 2 + 3 + 4 + 1 + 2 + 3 + 4 + ]
E |--3-3-3-3-3-3-3-3-3-3-3-3-3-3-3-3-|
B |--3-3-3-3-3-3-3-3-3-3-3-3-3-3-3-3-|
G |--0-0-0-0-0-0-0-0-0-0-0-0-0-0-0-0-|
D |--0-0-0-0-0-0-0-0-0-0-0-0-0-0-0-0-|
G |--2-2-2-2-2-2-2-2-2-2-2-2-2-2-2-2-|
E |--x-x-x-x-x-x-x-x-x-x-x-x-x-x-x-x-|


(I'm an addict to what I can't ever want...Some would say this is...)
   [ 1 + 2 + 3 + 4 + 1 + 2 + 3 + 4 + ]
E |--5-5-5-5-5-5-5-5-5-5-5-5-5-5-5-5-|
B |--5-5-5-5-5-5-5-5-5-5-5-5-5-5-5-5-|
G |--0-0-0-0-0-0-0-0-0-0-0-0-0-0-0-0-|
D |--0-0-0-0-0-0-0-0-0-0-0-0-0-0-0-0-|
G |--4-4-4-4-4-4-4-4-4-4-4-4-4-4-4-4-|
E |--x-x-x-x-x-x-x-x-x-x-x-x-x-x-x-x-|

(fiction but it is not...I can get so high off...)
   [ 1 + 2 + 3 + 4 + 1 + 2 + 3 + 4 + ]
E |--0-0-0-0-0-0-0-0-0-0-0-0-0-0-0-0-|
B |--1-1-1-1-1-1-1-1-3-3-3-3-3-3-3-3-|
G |--2-2-2-2-2-2-2-2-0-0-0-0-0-0-0-0-|
D |--3-3-3-3-3-3-3-3-4-4-4-4-4-4-4-4-|
G |--x-x-x-x-x-x-x-x-5-5-5-5-5-5-5-5-|
E |--x-x-x-x-x-x-x-x-x-x-x-x-x-x-x-x-|
(a vivid picture that's occupying my mind!)

[Chorus]
   [ 1 + 2 + 3 + 4 + 1 + 2 + 3 + 4 + ]
E |--3-3-3-3-3-3-3-3-3-3-3-3-3-3-3-3-|
B |--3-3-3-3-3-3-3-3-3-3-3-3-3-3-3-3-|
G |--0-0-0-0-0-0-0-0-0-0-0-0-0-0-0-0-|
D |--0-0-0-0-0-0-0-0-0-0-0-0-0-0-0-0-|
G |--0-0-0-0-0-0-0-0-0-0-0-0-0-0-0-0-|
E |--3-3-3-3-3-3-3-3-3-3-3-3-3-3-3-3-|

(Do you want to, do you want to, do you want to drive?)
   [ 1 + 2 + 3 + 4 + 1 + 2 + 3 + 4 + ]
E |--3-3-3-3-5-5-5-5-5-5-5-5-5-5-5-5-|
B |--3-3-3-3-5-5-5-5-5-5-5-5-5-5-5-5-|
G |--0-0-0-0-0-0-0-0-0-0-0-0-0-0-0-0-|
D |--0-0-0-0-0-0-0-0-0-0-0-0-0-0-0-0-|
G |--2-2-2-2-4-4-4-4-5-5-5-5-5-5-5-5-|
E |--x-x-x-x-x-x-x-x-x-x-x-x-x-x-x-x-|

(Say you want nobody's love and company but mine...)
   [ 1 + 2 + 3 + 4 + 1 + 2 + 3 + 4 + ]
E |--3-3-3-3-3-3-3-3-3-3-3-3-3-3-3-3-|
B |--3-3-3-3-3-3-3-3-3-3-3-3-3-3-3-3-|
G |--0-0-0-0-0-0-0-0-0-0-0-0-0-0-0-0-|
D |--0-0-0-0-0-0-0-0-0-0-0-0-0-0-0-0-|
G |--0-0-0-0-0-0-0-0-0-0-0-0-0-0-0-0-|
E |--3-3-3-3-3-3-3-3-3-3-3-3-3-3-3-3-|

(Do you want to, do you want to, do you want to drive?)
   [ 1 + 2 + 3 + 4 + 1 + 2 + 3 + 4 + ]
E |--3-3-3-3-5-5-5-5-5-5-5-5-5-5-5-5-|
B |--3-3-3-3-5-5-5-5-5-5-5-5-5-5-5-5-|
G |--0-0-0-0-0-0-0-0-0-0-0-0-0-0-0-0-|
D |--0-0-0-0-0-0-0-0-0-0-0-0-0-0-0-0-|
G |--2-2-2-2-4-4-4-4-5-5-5-5-5-5-5-5-|
E |--x-x-x-x-x-x-x-x-x-x-x-x-x-x-x-x-|

(Say you never met a woman that made you feel this alive...)
   [ 1 + 2 + 3 + 4 + 1 + 2 + 3 + 4 + ]
E |--0-0-0-0-0-0-0-0/0-0-0-0-0-0-0-0-|
B |--1-1-1-1-1-1-1-1/3-3-3-3-3-3-3-3-|
G |--0-0-0-0-0-0-0-0/0-0-0-0-0-0-0-0-|
D |--2-2-2-2-2-2-2-2/4-4-4-4-4-4-4-4-|
G |--2-2-2-2-2-2-2-2/4-4-4-4-4-4-4-4-|
E |--x-x-x-x-x-x-x-x-x-x-x-x-x-x-x-x-|

(I will lose my mind..I've come to find whenever in...)
   [ 1 + 2 + 3 + 4 + ]
E |--0-0-0-0-0-0-0-0-|
B |--3-3-3-3-3-3-3-3-|
G |--0-0-0-0-0-0-0-0-|
D |--5-5-5-5-5-5-5-5-|
G |--5-5-5-5-5-5-5-5-|
E |--x-x-x-x-x-x-x-x-|

(your presence I am present...)
   [ 1 + 2 + 3 + 4 + ]
E |--0-0-0-0-0-0-0-0-|
B |--0-0-0-0-0-0-0-0-|
G |--0-0-0-0-0-0-0-0-|
D |--7-7-7-7-7-7-7-7-|
G |--7-7-7-7-7-7-7-7-|
E |--x-x-x-x-x-x-x-x-|

(Imagination has me )
   [ 1 + 2 + 3 + 4 + 1 + 2 + 3 + 4 + ]
E |--0-0-0-0-0-0-0-0/0-0-0-0-0-0-0-0-|
B |--1-1-1-1-1-1-1-1/3-3-3-3-3-3-3-3-|
G |--0-0-0-0-0-0-0-0/0-0-0-0-0-0-0-0-|
D |--2-2-2-2-2-2-2-2/4-4-4-4-4-4-4-4-|
G |--2-2-2-2-2-2-2-2/4-4-4-4-4-4-4-4-|
E |--x-x-x-x-x-x-x-x-x-x-x-x-x-x-x-x-|

(seated at your side..It's nothing short of bliss)
   [ 1 + 2 + 3 + 4 + ]
E |--0-0-0-0-0-0-0-0-|
B |--3-3-3-3-3-3-3-3-|
G |--0-0-0-0-0-0-0-0-|
D |--5-5-5-5-5-5-5-5-|
G |--5-5-5-5-5-5-5-5-|
E |--x-x-x-x-x-x-x-x-|

(It's the best thing in the worst way)
   [ 1 + 2 + 3 + 4 + ]
E |--0-0-0-0-0-0-0-0-|
B |--0-0-0-0-0-0-0-0-|
G |--0-0-0-0-0-0-0-0-|
D |--7-7-7-7-7-7-7-7-|
G |--7-7-7-7-7-7-7-7-|
E |--x-x-x-x-x-x-x-x-|

Loving you like this, loving you like this

[Instrumental] 
   [ 1 + 2 + 3 + 4 + | 1 + 2 + 3 + 4 + | 1 + 2 + 3 + 4 + | 1 + 2 + 3 + 4 + ]
E |--0-0-0-0-0-0-0-0-|/0-0-0-0-0-0-0-0-|-0-0-0-0-0-0-0-0-|-0-0-0-0-0-0-0-0-|
B |--1-1-1-1-1-1-1-1-|/3-3-3-3-3-3-3-3-|-3-3-3-3-3-3-3-3-|-0-0-0-0-0-0-0-0-|
G |--0-0-0-0-0-0-0-0-|/0-0-0-0-0-0-0-0-|-0-0-0-0-0-0-0-0-|-0-0-0-0-0-0-0-0-|
D |--2-2-2-2-2-2-2-2-|/4-4-4-4-4-4-4-4-|-5-5-5-5-5-5-5-5-|-7-7-7-7-7-7-7-7-|
G |--2-2-2-2-2-2-2-2-|/4-4-4-4-4-4-4-4-|-5-5-5-5-5-5-5-5-|-7-7-7-7-7-7-7-7-|
E |--x-x-x-x-x-x-x-x-|-x-x-x-x-x-x-x-x-|-x-x-x-x-x-x-x-x-|-x-x-x-x-x-x-x-x-|

[Bridge]
PM   . . . . . . . . . . . . . . . . 
   [ 1 + 2 + 3 + 4 + 1 + 2 + 3 + 4 + ]
E |--3-3-3-3-3-3-3-3-3-3-3-3-3-3-3-3-|
B |--3-3-3-3-3-3-3-3-3-3-3-3-3-3-3-3-|
G |--0-0-0-0-0-0-0-0-0-0-0-0-0-0-0-0-|
D |--0-0-0-0-0-0-0-0-0-0-0-0-0-0-0-0-|
G |--0-0-0-0-0-0-0-0-0-0-0-0-0-0-0-0-|
E |--3-3-3-3-3-3-3-3-3-3-3-3-3-3-3-3-|
(Drive, drive...)

PM   . . . . . . . . . . . . . . . . 
   [ 1 + 2 + 3 + 4 + 1 + 2 + 3 + 4 + ]
E |--3-3-3-3-3-3-3-3-3-3-3-3-3-3-3-3-|
B |--3-3-3-3-3-3-3-3-3-3-3-3-3-3-3-3-|
G |--0-0-0-0-0-0-0-0-0-0-0-0-0-0-0-0-|
D |--0-0-0-0-0-0-0-0-0-0-0-0-0-0-0-0-|
G |--2-2-2-2-2-2-2-2-2-2-2-2-2-2-2-2-|
E |--x-x-x-x-x-x-x-x-x-x-x-x-x-x-x-x-|
(drive, drive...)

   [ 1 + 2 + 3 + 4 + 1 + 2 + 3 + 4 + ] 
E |--5-5-5-5-5-5-5-5-5-5-5-5-5-5-5-5-| 
B |--5-5-5-5-5-5-5-5-5-5-5-5-5-5-5-5-|  
G |--0-0-0-0-0-0-0-0-0-0-0-0-0-0-0-0-|  
D |--0-0-0-0-0-0-0-0-0-0-0-0-0-0-0-0-|  
G |--4-4-4-4-4-4-4-4-4-4-4-4-4-4-4-4-| 
E |--x-x-x-x-x-x-x-x-x-x-x-x-x-x-x-x-|  
(drive, drive...)

   [ 1 + 2 + 3 + 4 + 1 + 2 + 3 + 4 + ] 
E |--5-5-5-5-5-5-5-5-5-5-5-5-5-5-5-5-| 
B |--5-5-5-5-5-5-5-5-5-5-5-5-5-5-5-5-| 
G |--0-0-0-0-0-0-0-0-0-0-0-0-0-0-0-0-| 
D |--0-0-0-0-0-0-0-0-0-0-0-0-0-0-0-0-|
G |--5-5-5-5-5-5-5-5-5-5-5-5-5-5-5-5-| 
E |--x-x-x-x-x-x-x-x-x-x-x-x-x-x-x-x-|  
(drive, drive...)

PM   . . . . . . . . . . . . . . . . 
   [ 1 + 2 + 3 + 4 + 1 + 2 + 3 + 4 + ]
E |--3-3-3-3-3-3-3-3-3-3-3-3-3-3-3-3-|
B |--3-3-3-3-3-3-3-3-3-3-3-3-3-3-3-3-|
G |--0-0-0-0-0-0-0-0-0-0-0-0-0-0-0-0-|
D |--0-0-0-0-0-0-0-0-0-0-0-0-0-0-0-0-|
G |--0-0-0-0-0-0-0-0-0-0-0-0-0-0-0-0-|
E |--3-3-3-3-3-3-3-3-3-3-3-3-3-3-3-3-|
(Drive, drive...)

PM   . . . . . . . . . . . . . . . . 
   [ 1 + 2 + 3 + 4 + 1 + 2 + 3 + 4 + ]
E |--3-3-3-3-3-3-3-3-3-3-3-3-3-3-3-3-|
B |--3-3-3-3-3-3-3-3-3-3-3-3-3-3-3-3-|
G |--0-0-0-0-0-0-0-0-0-0-0-0-0-0-0-0-|
D |--0-0-0-0-0-0-0-0-0-0-0-0-0-0-0-0-|
G |--2-2-2-2-2-2-2-2-2-2-2-2-2-2-2-2-|
E |--x-x-x-x-x-x-x-x-x-x-x-x-x-x-x-x-|
(drive, drive...)

   [ 1 + 2 + 3 + 4 + 1 + 2 + 3 + 4 + ] 
E |--5-5-5-5-5-5-5-5-5-5-5-5-5-5-5-5-| 
B |--5-5-5-5-5-5-5-5-5-5-5-5-5-5-5-5-|  
G |--0-0-0-0-0-0-0-0-0-0-0-0-0-0-0-0-|  
D |--0-0-0-0-0-0-0-0-0-0-0-0-0-0-0-0-|  
G |--4-4-4-4-4-4-4-4-4-4-4-4-4-4-4-4-| 
E |--x-x-x-x-x-x-x-x-x-x-x-x-x-x-x-x-|  
(drive, drive...)

   [ 1 + 2 + 3 + 4 + 1 + 2 + 3 + 4 + ] 
E |--5-5-5-5-5-5-5-5-5-5--------------| 
B |--5-5-5-5-5-5-5-5-5-5--------------|
G |--0-0-0-0-0-0-0-0-0-0--------------|
D |--0-0-0-0-0-0-0-0-0-0--------------|
G |--5-5-5-5-5-5-5-5-5-5--------------|
E |--x-x-x-x-x-x-x-x-x-x--------------|
[All the world is still, hands on the wheel!]

[Chorus]

[Chorus]
   [ 1 + 2 + 3 + 4 + 1 + 2 + 3 + 4 + ]
E |--3-3-3-3-3-3-3-3-3-3-3-3-3-3-3-3-|
B |--3-3-3-3-3-3-3-3-3-3-3-3-3-3-3-3-|
G |--0-0-0-0-0-0-0-0-0-0-0-0-0-0-0-0-|
D |--0-0-0-0-0-0-0-0-0-0-0-0-0-0-0-0-|
G |--0-0-0-0-0-0-0-0-0-0-0-0-0-0-0-0-|
E |--3-3-3-3-3-3-3-3-3-3-3-3-3-3-3-3-|

(Do you want to, do you want to, do you want to drive?)
   [ 1 + 2 + 3 + 4 + 1 + 2 + 3 + 4 + ]
E |--3-3-3-3-5-5-5-5-5-5-5-5-5-5-5-5-|
B |--3-3-3-3-5-5-5-5-5-5-5-5-5-5-5-5-|
G |--0-0-0-0-0-0-0-0-0-0-0-0-0-0-0-0-|
D |--0-0-0-0-0-0-0-0-0-0-0-0-0-0-0-0-|
G |--2-2-2-2-4-4-4-4-5-5-5-5-5-5-5-5-|
E |--x-x-x-x-x-x-x-x-x-x-x-x-x-x-x-x-|

(Say you want nobody's love and company but mine...)
   [ 1 + 2 + 3 + 4 + 1 + 2 + 3 + 4 + ]
E |--3-3-3-3-3-3-3-3-3-3-3-3-3-3-3-3-|
B |--3-3-3-3-3-3-3-3-3-3-3-3-3-3-3-3-|
G |--0-0-0-0-0-0-0-0-0-0-0-0-0-0-0-0-|
D |--0-0-0-0-0-0-0-0-0-0-0-0-0-0-0-0-|
G |--0-0-0-0-0-0-0-0-0-0-0-0-0-0-0-0-|
E |--3-3-3-3-3-3-3-3-3-3-3-3-3-3-3-3-|

(Do you want to, do you want to, do you want to drive?)
   [ 1 + 2 + 3 + 4 + 1 + 2 + 3 + 4 + ]
E |--3-3-3-3-5-5-5-5-5-5-5-5-5-5-5-5-|
B |--3-3-3-3-5-5-5-5-5-5-5-5-5-5-5-5-|
G |--0-0-0-0-0-0-0-0-0-0-0-0-0-0-0-0-|
D |--0-0-0-0-0-0-0-0-0-0-0-0-0-0-0-0-|
G |--2-2-2-2-4-4-4-4-5-5-5-5-5-5-5-5-|
E |--x-x-x-x-x-x-x-x-x-x-x-x-x-x-x-x-|

(Say you never met a woman that made you feel this alive...)
   [ 1 + 2 + 3 + 4 + 1 + 2 + 3 + 4 + ]
E |--0-0-0-0-0-0-0-0/0-0-0-0-0-0-0-0-|
B |--1-1-1-1-1-1-1-1/3-3-3-3-3-3-3-3-|
G |--0-0-0-0-0-0-0-0/0-0-0-0-0-0-0-0-|
D |--2-2-2-2-2-2-2-2/4-4-4-4-4-4-4-4-|
G |--2-2-2-2-2-2-2-2/4-4-4-4-4-4-4-4-|
E |--x-x-x-x-x-x-x-x-x-x-x-x-x-x-x-x-|

(And I will lose my mind..I'm fortified whenever)
   [ 1 + 2 + 3 + 4 + ]
E |--0-0-0-0-0-0-0-0-|
B |--3-3-3-3-3-3-3-3-|
G |--0-0-0-0-0-0-0-0-|
D |--5-5-5-5-5-5-5-5-|
G |--5-5-5-5-5-5-5-5-|
E |--x-x-x-x-x-x-x-x-|

(your presence I am present...)
   [ 1 + 2 + 3 + 4 + ]
E |--0-0-0-0-0-0-0-0-|
B |--0-0-0-0-0-0-0-0-|
G |--0-0-0-0-0-0-0-0-|
D |--7-7-7-7-7-7-7-7-|
G |--7-7-7-7-7-7-7-7-|
E |--x-x-x-x-x-x-x-x-|

(It'd be a pleasure to be)
   [ 1 + 2 + 3 + 4 + 1 + 2 + 3 + 4 + ]
E |--0-0-0-0-0-0-0-0/0-0-0-0-0-0-0-0-|
B |--1-1-1-1-1-1-1-1/3-3-3-3-3-3-3-3-|
G |--0-0-0-0-0-0-0-0/0-0-0-0-0-0-0-0-|
D |--2-2-2-2-2-2-2-2/4-4-4-4-4-4-4-4-|
G |--2-2-2-2-2-2-2-2/4-4-4-4-4-4-4-4-|
E |--x-x-x-x-x-x-x-x-x-x-x-x-x-x-x-x-|

(seated at your side..No it's nothing short of bliss)
   [ 1 + 2 + 3 + 4 + | 1 + 2 + 3 + 4 + ]
E |--0-0-0-0-0-0-0-0-|-0-0-0-0-0-0-0-0-|
B |--3-3-3-3-3-3-3-3-|-0-0-0-0-0-0-0-0-|
G |--0-0-0-0-0-0-0-0-|-0-0-0-0-0-0-0-0-|
D |--5-5-5-5-5-5-5-5-|-7-7-7-7-7-7-7-7-|
G |--5-5-5-5-5-5-5-5-|-7-7-7-7-7-7-7-7-|
E |--x-x-x-x-x-x-x-x-|-x-x-x-x-x-x-x-x-|
(It's the best thing in the worst way)

[Outro]
   [ 1 + 2 + 3 + 4 + 1 + 2 + 3 + 4 + ]
E |--0-0-0-0/0-0-0-0-0-0-0-0-0-0-0-0-|
B |--1-1-1-1/3-3-3-3-3-3-3-3-3-3-3-3-|
G |--0-0-0-0/0-0-0-0-0-0-0-0-0-0-0-0-|
D |--2-2-2-2/4-4-4-4-5-5-5-5-5-5-5-5-|
G |--2-2-2-2/4-4-4-4-5-5-5-5-5-5-5-5-|
E |--x-x-x-x-x-x-x-x-x-x-x-x-x-x-x-x-|

(It's the best thing, best thing...)
   [ 1 + 2 + 3 + 4 + 1 + 2 + 3 + 4 + ]
E |--0-0-0-0/0-0-0-0-0-0-0-0-0-0-0-0-|
B |--1-1-1-1/3-3-3-3-3-3-3-3-3-3-3-3-|
G |--0-0-0-0/0-0-0-0-0-0-0-0-0-0-0-0-|
D |--2-2-2-2/4-4-4-4-5-5-5-5-5-5-5-5-|
G |--2-2-2-2/4-4-4-4-5-5-5-5-5-5-5-5-|
E |--x-x-x-x-x-x-x-x-x-x-x-x-x-x-x-x-|


(It's the best thing, best thing...)
   [ 1 + 2 + 3 + 4 + 1 + 2 + 3 + 4 + ]
E |--0-0-0-0/0-0-0-0-0-0-0-0-0-0-0-0-|
B |--1-1-1-1/3-3-3-3-3-3-3-3-3-3-3-3-|
G |--0-0-0-0/0-0-0-0-0-0-0-0-0-0-0-0-|
D |--2-2-2-2/4-4-4-4-5-5-5-5-5-5-5-5-|
G |--2-2-2-2/4-4-4-4-5-5-5-5-5-5-5-5-|
E |--x-x-x-x-x-x-x-x-x-x-x-x-x-x-x-x-|

(It's the best thing, best thing..)
   [ 1 + 2 + 3 + 4 + 1 + 2 + 3 + 4 + ]
E |--0~------0~------0~--------------|
B |--1~------3~------3~--------------|
G |--0~------0~------0~--------------|
D |--2~------4~------5~--------------|
G |--2~------4~------5~--------------|
E |--x-------x-------x---------------|
(It's the best thing in the worst way loving you like this...)

************************************

    |  h - hammer on 
    |  p - pull off 
    |  b - bend string up
    |  r - release bend
    |  / - slide up
    |  \ - slide down
    |  v - vibrato (sometimes written as ~)
    |  t - tap (with strumming hand)
    |  x - muted, struck string

************************************

            
            
Suggest correction
Creating personal tab
Creating personal tab
You can edit any tab online and save it as your Personal.

You can edit, replace or remove any tab part or add personal notes – all changes will be seen only by you.

Personal tabs can be accessed anytime from any device, even offline.
Learn more »
Give kudos to tab author, rate the tab!
1 2 3 4 5
comments
print report bad tab
guest
You may want to rate the tab now too:
select rating
Wanna post a correction for this tab? Suggest correction