Oops, an error
Loading. Please wait.

Unexpected Feeling tab

1,243 views 45 this week
no commentswrite comment
1 2 3 4 5
x 7
add to favorites
×
Save as Personal and add changes to this tab that will be seen only by you. Learn more ›
×
You can save this tab as Personal to edit and correct it or add notes. All changes will be seen only by you. Learn more »
launch autoscroll
font size
0
reset
how to read this tab
guitar tuner
edit
Autoscroll
slow
fast
+/-
esc
set tempo
stop
About this tab version
Finally a Gretta Ray tab. Listen to the song to get an accurate view on timing but hope you enjoy. This took a while figuring out by watching her videos and watching her live, and its actually a lot easier to play then it looks. Was this info helpful? Yes No
Capo 2

[Intro]
e|------------------------------------------------------------------------------|
B|--3--5----5--8--7----7--3--5----5--8--8-7-7--3--5----5--3--0----0-----1--3----|
G|--0--0---0---0--0---0---0--0---0---0--0-0-0--0--0---0---2--0---0-0---0---0----|
D|--------0----------0----------0--------------------0----------0-----2----4----|
A|--2--3-------7--5-------2--3-------7--7-5-5--2--3----------2-------3-----5----|
E|--------------------------------------------------------0---------------------|

[Verse]
(the verses are very similar to the intro but slightly different so be careful not to confuse the two)
e|---------------------------------------------------------------------------------|
B|--3--5----5--3--0----0--3--5----5--8--8-7-7--3--5----5--3--0----0-----1-----3----|
G|--0--0---0---2--0---0---0--0---0---0--0-0-0--0--0---0---2--0---0-0---0-----0-----|
D|--------0----------0----------0--------------------0----------0-----2-----4------|
A|--2--3----------2-------2--3-------7--7-5-5--2--3----------2-------3-----5-------|
E|-------------0------------------------------------------0------------------------|

e|---------------------------------------------------------------------------------|
B|--3--5----5--3--0----0--3--5----5--8--8-7-7--3--5----5--3--0----0-----1-----3----|
G|--0--0---0---2--0---0---0--0---0---0--0-0-0--0--0---0---2--0---0-0---0-----0-----|
D|--------0----------0----------0--------------------0----------0-----2-----4------|
A|--2--3----------2-------2--3-------7--7-5-5--2--3----------2-------3-----5-------|
E|-------------0------------------------------------------0------------------------|

[Bridge to chorus]
e|-----------------------------------------------------------------------------|
B|--3-3--3-3--1-1--3-3--3-3--3--3-----1-1--------------------------------------|
G|--0-0--0-0--0-0--0-0--0-0--0--0-----2-2--------------------------------------|
D|------------------------------------3-3--------------------------------------|
A|--3-3--2-2--3-3--2-2--3-3----------------------------------------------------|
E|---------------------------3--0----------------------------------------------|

[Chorus]
(the chorus is also very similar to the intro but with some changes at the end)
e|------------------------------------------------------------------------------------------|
B|--3--5----5--8--7----7--3--5----5--8--8-7-7--3--5----5--8--7---3---5---1---1---3-5-8-7----|
G|--0--0---0---0--0---0---0--0---0---0--0-0-0--0--0---0---0--0---0---0---2---0---0-0-0-0----|
D|--------0----------0----------0--------------------0-------------------3------------------|
A|--2--3-------7--5-------2--3-------7--7-5-5--2--3-------7--5---2---3-------3---2-3-7-5----|
E|------------------------------------------------------------------------------------------|

[Verse]
(first part is same as first set of verses but the second has a different transition to the bridge)
e|---------------------------------------------------------------------------------|
B|--3--5----5--3--0----0--3--5----5--8--8-7-7--3--5----5--3--0----0-----1-----3----|
G|--0--0---0---2--0---0---0--0---0---0--0-0-0--0--0---0---2--0---0-0---0-----0-----|   
D|--------0----------0----------0--------------------0----------0-----2-----4------|
A|--2--3----------2-------2--3-------7--7-5-5--2--3----------2-------3-----5-------|
E|-------------0------------------------------------------0------------------------|

e|------------------------------------------------------------------------------------------|
B|--3--5----5--3--0----0--3--5----5--8--8-7-7---3---5----3---0----1--3---0-0---1--3---3-3---|
G|--0--0---0---2--0---0---0--0---0---0--0-0-0---0---0----2---0----0--0---0-0---0--0---0-0---|   
D|--------0----------0----------0---------------------------------2--4---------2--4---------|
A|--2--3----------2-------2--3-------7--7-5-5---2---3--------2----3--5---2-2---3--5---2-2---|
E|-------------0-----------------------------------------0----------------------------------|

[Bridge to chorus]
e|-----------------------------------------------------------------------------|
B|--3-3--3-3--1-1--3-3--3-3--3--3-----1-1--------------------------------------|
G|--0-0--0-0--0-0--0-0--0-0--0--0-----2-2--------------------------------------|
D|------------------------------------3-3--------------------------------------|
A|--3-3--2-2--3-3--2-2--3-3----------------------------------------------------|
E|---------------------------3--0----------------------------------------------|

[Chorus & Ending]
(this chorus is slightly different from the first)
e|-----------------------------------------------------------------------------------|
B|--3--5----5--8--7----7--3--5----5--8--8-7-7--3--5----5--8--7---3---5---1---1-------|
G|--0--0---0---0--0---0---0--0---0---0--0-0-0--0--0---0---0--0---0---0---2---0-------|
D|--------0----------0----------0--------------------0-------------------3-----------|
A|--2--3-------7--5-------2--3-------7--7-5-5--2--3-------7--5---2---3-------3-------|
E|-----------------------------------------------------------------------------------|

e|--------------------------------------------------------------------------------------------3--|
B|--3--5----5--8--7----7--3--5----5--8--8-7-7--3--5----5--8--7---3---5---1---1---3---3-------3---|
G|--0--0---0---0--0---0---0--0---0---0--0-0-0--0--0---0---0--0---0---0---2---0---0---0------0----|
D|--------0----------0----------0--------------------0-------------------3-----------1-----0-----|
A|--2--3-------7--5-------2--3-------7--7-5-5--2--3-------7--5---2---3-------3---2--------2------|
E|---------------------------------------------------------------------------------------3-------|

            
            
Suggest correction
Creating personal tab
Creating personal tab
You can edit any tab online and save it as your Personal.

You can edit, replace or remove any tab part or add personal notes – all changes will be seen only by you.

Personal tabs can be accessed anytime from any device, even offline.
Learn more »
comments
print report bad tab
guest
You may want to rate the tab now too:
select rating
Wanna post a correction for this tab? Suggest correction