Oops, an error
Loading. Please wait.

B12 Tab

version 1
version 1

Whole song

Interactive

1,105 views 3 this week
2 commentsread comments
1 2 3 4 5
3 more votes to show rating
add to favorites
launch autoscroll
font size
0
reset
how to read this tab
guitar tuner
Autoscroll
slow
fast
+/-
esc
set tempo
stop
Help us to improve Ultimate-Guitar.com Take our survey!
×
Awesome song by Chester Benningtons old band called grey daze.

Tuning: STANDARD


Bass intro:
e--------------------------------------|
b--------------------------------------|
g--------------------------------------|
d----4---------------------------------|
a-2-2----4---5-------------------------|
E-----2-2-3-3--------------------------|
(this is played throughout the whole song except Chorus)

Guiitar intro:(after playing the bass intro 4 times)
e---------------12---------------------|
b----------------12-12-----------------|
g--------------------------------------|
d-1s9~(let ring)------9~(let ring)-----|
a--------------------------------------|
E--------------------------------------|

Pre-Chorus
e-------------------------|
b-12-12-12-12-12-12-12-12-|
g-x--x--x--x--x--x--x--x--|
d-9--9--9--9--9--9--9--9--| x4
a-------------------------|
E-------------------------|


Chorus
e--------------------------|
b--------------------------|
g-4-x---x---x---x---x---x--|
d-4-x-4-x-4-x-4-x-5-x-2-x--|
a-2-x-4-x-4-x-4-x-5-x-2-x--| x4
E---x-2-x-2-x-2-x-3-x-0-x--|

Bridge:(first slide on this is fast)
e------------------|
b------------------|
g------------------|
d-1s9~(let ring)---| x4
a------------------|
E------------------|
After the sliding for bridge:
e-12-12------------|
b-12-12------------|
g------------------|
d------------------|
a------------------|
E------------------|

Song ends on a Gb power chord:
e-------------|
b-------------|
g-------------|
d-4-4---------|
a-4-4---------|
E-2-2---------|


Well thats the whole song..peace!
Suggest correction
Give kudos to tab author, rate the tab!
1 2 3 4 5
comments
print report bad tab
2 comments total.
0 reply
SKATER~DUDE431 70 Feb 10, 2005 12:00 AM

dangit i always forget something! ohwell the pre-chorus is just a repeatig octave:
[code]
e-------------------------
b-12-12-12-12-12-12-12-12-
g-x--x--x--x--x--x--x--x--
d-9--9--9--9--9--9--9--9-- x4
a-------------------------
E-------------------------
[/code]

play that when he sings "hooray hoorah!"

0 reply
HiroFox89 10 Aug 08, 2007 02:48 PM

do more gerydaze dude!






guest
You may want to rate the tab now too:
select rating
Wanna post a correction for this tab? Suggest correction