Oops, an error
Loading. Please wait.

Sometimes Tab

version 1
version 1

Whole song

2,717 views 1 this week
no commentswrite comment
1 2 3 4 5
accurate
x 4
add to favorites
launch autoscroll
font size
0
reset
how to read this tab
guitar tuner
Autoscroll
slow
fast
+/-
esc
set tempo
stop
Help us to improve Ultimate-Guitar.com Take our survey!
×
Author
Difficulty
intermediate
intro & verse
-|--------1--------|---------------0-00-|-------1--------|---------------|-
-|-1--1-3---3-1-31-|---------------0-00-|-1-1-3---3-1-31-|---1-11--------|-
-|-2--2-----2---2--|-0--0-0-0-0----0-00-|-2-2-----2---2--|-0-0-00---00-0-|-
-|-2--2------------|-0--0-0-0-2-22-2---2|-2-2------------|-2-2-22---00-0-|-
-|-0--0------------|-2--2-2-2-2-22-2---2|-0-0------------|-3-3-33-2-22-2-|-
-|-----------------|-3--3-3-3-0-00-0---0|----------------|--------3-33-3-|-
(Clean)                                                                

-|---------------------|------------------------------|---------------------|-
-|---------------------|------------------------------|---------------------|-
-|-2---------7--7/9--5-|-2---------77777--55555--5555-|-2----7777-7777-7777-|-
-|-2-----2---x--x-x--x-|-2-----2---xxxxx--xxxxx--xxxx-|-2--2-xxxx-xxxx-xxxx-|-
-|-0-----2---5--5/7--3-|-0-----2---55555--33333--3333-|-0--2-5555-5555-5555-|-
-|-------0-------------|-------0----------------------|----0----------------|-
 CHORUS (Distortion) Play: Measure 1, Measure 2, Measure 1, Measure 3         

-|-----------|-88888-55---------|--5-8-10---8-5v|-----------------|-
-|-----------|----------8-5-----|-8-------------|-----------------|-
-|-----5-----|--------------7-5v|---------------|-5-5-5-4-4-4-4-4-|-
-|-5h7---5h7-|------------------|---------------|-5-5-5-4-4-4-4-4-|-
-|-----------|------------------|---------------|-3-3-3-2-2-2-2-2-|-
-|-----------|------------------|---------------|-----------------|-
 Clean Solo                                      Solo to Solo fill            

-|----------|-------------|-----|-------------------------------------------|-
-|----------|-------------|-----|-------------------------------------------|-
-|-9-7-10-9-|-12-10-14-12-|-14*-|-14-14-12----12----------------------------|-
-|-x-x--x-x-|--x--x--x--x-|--x*-|----------14----14-12-------12-------------|-
-|-7-5--8-7-|-10--8-12-10-|-12*-|----------------------14-12----14-12----12\|-
-|----------|-------------|-----|-------------------------------------15----|-
 Distorted Solo (w/ wah)    *Tremolo Pick                           
Suggest correction
comments
print report bad tab
guest
You may want to rate the tab now too:
select rating
Wanna post a correction for this tab? Suggest correction