Oops, an error
Loading. Please wait.

Sometimes Tab

version 2
version 2

Whole song

2,201 views 1 this week
2 commentsread comments
1 2 3 4 5
accurate
x 3
add to favorites
launch autoscroll
font size
0
reset
how to read this tab
guitar tuner
Autoscroll
slow
fast
+/-
esc
set tempo
stop
Help us to improve Ultimate-Guitar.com Take our survey!
×
Author
Difficulty
intermediate
tabbed by: Marian-Mina Mihai (Lalu)
	This is my favorite song, and I think it's the BEST EVER. 

	Grey Daze - Sometimes
	No Sun Today

Verse (X2):
Guitar I:
e|-0-------0-----0-------0-----0---------------------------------|
B|-1-------1h3-------3---1h3h1-1---0---0-0-0---0-0----0-0--0-0-0-|
G|-2-------2---2---------2-----2---0-------0---0-0----0-0--0-0-0-|
D|-2-------2-------------2-----2---0-------0---0-2----2-2--2-2-2-|
A|-0-------0-------------0-----0---2-------2---2-2----2-2--2-2-2-|
E|---------------------------------3-------3---3-0----0-0--0-0-0-|

e|-0-------0-----0-------0-----0--0----0---0-0---0-0---0-0-0-0-0-|
B|-1-------1h3-------3---1h3h1-1--1----1---1-1---0-0---0-0-0-0-0-|
G|-2-------2---2---------2-----2--0----0---0-0---0-0---0-0-0-0-0-|
D|-2-------2-------------2-----2--2----2---2-2---2-2---2-2-2-2-2-|
A|-0-------0-------------0-----0--3----3---3-3---3-3---3-3-3-3-3-|
E|---------------------------------------------------------------|

e|-0-------0-----0-------0-----0---------------------------------|
B|-1-------1h3-------3---1h3h1-1---0---0-0-0---0-0----0-0--0-0-0-|
G|-2-------2---2---------2-----2---0-------0---0-0----0-0--0-0-0-|
D|-2-------2-------------2-----2---0-------0---0-2----2-2--2-2-2-|
A|-0-------0-------------0-----0---2-------2---2-2----2-2--2-2-2-|
E|---------------------------------3-------3---3-0----0-0--0-0-0-|

e|-0-------0-----0-------0-----0--0----0---0-0---0-0---3-3-3-3-3-|
B|-1-------1h3-------3---1h3h1-1--1----1---1-1---0-0---2-2-2-2-2-|
G|-2-------2---2---------2-----2--0----0---0-0---0-0---3-3-3-3-3-|
D|-2-------2-------------2-----2--2----2---2-2---2-2-------------|
A|-0-------0-------------0-----0--3----3---3-3---3-3-------------|
E|---------------------------------------------------------------|

Bass:

G|-----------------------------------------------------------|
D|-----------------------------------------------------------|
A|-0---0---0---0-0---0---------------------------------------|
E|--------------------------------3-------3---3-0------------|

Chorus (x4):

e|------------------------------------------------------------------|
B|------------------------------------------------------------------|
G|-2--------------------------------7---------------5---------------|
D|-2----------------2---------------X---------------X---------------|
A|-0----------------2---------------5---------------3---------------|
E|------------------0-----------------------------------------------|

Verse:

Chorus (x4):

Solo:


e|---------------------------------0--------0----------------------|
B|--------8------------------------------------8----10----10--11---|
G|--7---------------------------------7--7-------------------------|
D|-----------------------------------------------------------------|
A|-----------------------------------------------------------------|
E|-----------------------------------------------------------------|

e|---------------10------------10----------------------------------|
B|-12--10----12-------11--12-------12---11--10---8--10---8----7----|
G|-----------------------------------------------------------------|
D|-----------------------------------------------------------------|
A|-----------------------------------------------------------------|
E|-----------------------------------------------------------------|

e|------------0--------0-----0-----------10--------------12--|
B|-7---8---7-----7--------8------8---10------10--11--12------|
G|------------------7----------------------------------------|
D|-----------------------------------------------------------|
A|-----------------------------------------------------------|
E|-----------------------------------------------------------|

e|------12-------------------------10----11---12--10----12---11--|
B|--12------12--11--10--8--10--12--------------------------------|
G|---------------------------------------------------------------|
D|---------------------------------------------------------------|
A|---------------------------------------------------------------|
E|---------------------------------------------------------------|

e|--10--------------------------------------0--------0------------------------|
B|--------12--------12--10--12--10--8--8----------------8--10--8----8--10--8--|
G|---------------------------------------------8--8---------------------------|
D|----------------------------------------------------------------------------|
A|----------------------------------------------------------------------------|
E|----------------------------------------------------------------------------|

e|--0-----0-------------------------0-------------10--11---|
B|-----8-----------8---8---8-----8-----8--10--12-----------|
G|-----------7--7------------------------------------------|
D|---------------------------------------------------------|
A|---------------------------------------------------------|
E|---------------------------------------------------------|

e|--12--12----12---11--10--12----|--13-------------------|--15-------------------|
D|-------------------------------|-----------------------|-----------------------|
G|-------------------------------|-----------------------|-----------------------|
B|-------------------------------|-----------------------|-----------------------|
A|-------------------------------|-----------------------|-----------------------|
E|-------------------------------|-----------------------|-----------------------|

e|--12-------------------|--10-------------------|--8-------------------|
D|-----------------------|-----------------------|----------------------|
G|-----------------------|-----------------------|----------------------|
B|-----------------------|-----------------------|----------------------|
A|-----------------------|-----------------------|----------------------|
E|-----------------------|-----------------------|----------------------|

e|--19-17-15-13-12-10-8-7---------------------0--1--3--1--3--5--3--5--|
D|------------------------10-8-6--------------------------------------|
G|-------------------------------10-7---------------------------------|
B|------------------------------------10-9-7--------------------------|
A|--------------------------------------------------------------------|
E|--------------------------------------------------------------------|

e|--7--3--5--7--------5--3--|
D|--------------------------|
G|--------------------------|
B|--------------------------|
A|--------------------------|
E|--------------------------|

Chorus (x8):

Verse:
Suggest correction
Give kudos to tab author, rate the tab!
1 2 3 4 5
comments
print report bad tab
2 comments total.
+1 reply
Arrolito 30 wrote on December 30 2007, 08:35 am

Thanks for the tabs!
You've probably seen the other tab version of Sometimes...
That one is from the NEW
version...
Sean Dowdell took some songs from the Wake Me and No Sun Today albums and made the everything sound more
new, and then he putted them out in LPassociation.com so people could download it for
free.
http://en.wikipedia.org/wiki/...No_Sun_Today
Look at the bottom of the text to see the link to LPassociations
download page..
Of course its a legal download page, cause Sean couldnt apperently find a way to sell the CDs...
So
the other tab is from the "Re-masters CD" that made everything sound a little bit new, and in Sometimes... They changed
the solo.

But thanks for these tabs, cause I was looking for the old versions tab too! :D

0 reply
bboylalu 279 wrote on September 6 2011, 07:27 am

As UG didn't aprove my corrected submission for the solo, here it is...:


E |----------------------------------------------------|
B |----------------------------------------------------|
G |--------12------------------------------------------|
D |--12s14-------------------------------------14-12---|
A |----------------------------------------------------|
E |----------------------------------------------------|

----------------------------------------------------|
-----------------------------15-------15------------|
--------12----12h14-14L------14-14L---14-14b---14---|
--12h14----14---------------------------------------|
----------------------------------------------------|
----------------------------------------------------|

--------------------------------------------------------------------------------
--------------------------------------------------------------------------------
--12h---14h---12L---------------------12----11----11h12h11----------11----------
--------------------------------------------------------------14----------12b---
--------------------------------------------------------------------------------
--------------------------------------------------------------------------------

--------------------|----------------------------------------------------|
--------------------|--------15-------15-------15----------------12h15---|
------12------------|--12h14----14L---14-14L---14-14b---14-12h14---------|
------------14------|----------------------------------------------------|
--------------------|----------------------------------------------------|
--------------------|----------------------------------------------------|

--------------------------------------------------------------------------------
--15b---------------------------------12----------------------------------------
--------------------------------------------------------------------------------
--------------------------------------------------------------------------------
--------------------------------------------------------------------------------
--------------------------------------------------------------------------------

--------------------|----------------------------------------------------|
------12----13h12---|-----12---------------------------------------------|
--------------------|--14----14-12-14b------12L---------------12---------|
--------------------|--------------------14----------------------14-12---|
--------------------|----------------------------------------------------|
--------------------|----------------------------------------------------|

----------------------------------------------------|
----------------------------------------------------|
--------12----12h14h12----12h14h12----12------------|
--12h14----14----------14----------14-------14h12---|
----------------------------------------------------|
----------------------------------------------------|

----------------------------------------------------|
--------------------------------------12----12-15---|
--------12-------12-12----12----12-14----14---------|
--12-14----12-14-------14----14---------------------|
----------------------------------------------------|
----------------------------------------------------|

--------------------------------------------------------------------------------
--15b---------------------15b---------15b---------------------------------------
--------------------------------------------------------------------------------
--------------------------------------------------------------------------------
--------------------------------------------------------------------------------
--------------------------------------------------------------------------------

------------12h15---|--15b---------15b---15----------------------15-17---|
------12h15---------|----------------------------------------------------|
--------------------|----------------------------------------------------|
--------------------|----------------------------------------------------|
--------------------|----------------------------------------------------|
--------------------|----------------------------------------------------|

--12-15h12-15h12----------------------------------------------------------------
-----------------15-15h12-15h12-15h12-------------------------------------------
--------------------------------------14h16-14h16-12s14-14----12----------12----
--------------------------------------------------------------------14----------
--------------------------------------------------------------------------------
--------------------------------------------------------------------------------

--------------------|----------------------------------------------------|
--------------------|----------------------------------------------------|
--------------------|--12----12-------12-------12-------12-14b---14~-----|
------14----12------|-----14----12-14----12-14----12-14------------------|
--------------------|---------------------------

guest
You may want to rate the tab now too:
select rating
Please do not post tabs as comments. Select "correction" instead!