Oops, an error
Loading. Please wait.

The Down Syndrome Tab

version 1
version 1

Whole song

3,973 views 6 this week
no commentswrite comment
1 2 3 4 5
x 3
add to favorites
launch autoscroll
font size
0
reset
how to read this tab
guitar tuner
Autoscroll
slow
fast
+/-
esc
set tempo
stop
Help us to improve Ultimate-Guitar.com Take our survey!
×
Author
Difficulty
e|-------------------|-------------------------------------------------------|
B|-------------------|-------------------------------------------------------|
G|----0----0---------|----0---0------------0---------------------------------|
D|-----------------4-|----------------4-----4--------------------------------|
A|--7---7----7-\-5---|--7---7---7-\-5---5----5-------------------------------|
E|-------------------|-------------------------------------------------------|

Later on in the verse: Repeat a few times
e|------------------------------------------------------------------------------|
B|------------------------------------------------------------------------------|
G|--------0-----------0---------------------------------------------------------|
D|----5---------4---------------------------------------------------------------|
A|--7---7---7-5---5-----5-------------------------------------------------------|
E|------------------------------------------------------------------------------|

Chorus:
e|--------------|------------------------------------------------------------|
B|--------------|------------------------------------------------------------|
G|------0-------|-----0------------------------------------------------------|
D|----5--7--5-4-|---5---7-5-4-2-0--------------------------------------------|
A|--7-----------|-7----------------------------------------------------------|
E|--------------|------------------------------------------------------------|

Post Chorus Outro No Words Part: Play it the way it's written first, then play it again 
this time strike each chord a few times before moving to the next chord.
e|---------------------------------------------------------------------------|
B|---------------------------------------------------------------------------|
G|---------------------------------------------------------------------------|
D|-9~-9/11-7~-7/9-3~-3/7-4---------------------------------------------------|
A|-7~-7/9--5~-5/7-5~-5/5-2---------------------------------------------------|
E|---------------------------------------------------------------------------|
Suggest correction
Give kudos to tab author, rate the tab!
1 2 3 4 5
comments
print report bad tab
guest
You may want to rate the tab now too:
select rating
Wanna post a correction for this tab? Suggest correction