Oops, an error
Loading. Please wait.

The Down Syndrome Tab

version 2
version 2

Whole song

3,396 views 6 this week
2 commentsread comments
1 2 3 4 5
2 more votes to show rating
add to favorites
launch autoscroll
font size
0
reset
how to read this tab
guitar tuner
Autoscroll
slow
fast
+/-
esc
set tempo
stop
Help us to improve Ultimate-Guitar.com Take our survey!
×
I couldn't find an accurate tab anywhere so I wrote my own. It's %99.9.

Intro/Verse v1 - x3
e|----------------------|
B|----------------------|
G|----------------------|
D|-----5----5--------4--|
A|--------7----7---5----|
E|--0------------0------|


Verse v1 Ending - x1
e|---------------------------------|
B|---------------------------------|
G|------------------------0--------| 
D|------5----5--------4-----4---4--|
A|---------7----7---5---5-----5----|
E|--0-------------0----------------|

Intro/Verse v1 - x1

Verse v1 Ending - x1

Intro/Verse v1 - x3

Verse v1 Ending - x1

Verse v2 - x4
e|----------------------------------------|
B|----------------------------------------|
G|----------0---------------0-------------| 
D|------5-----5---5-----4-----4---4----4--|
A|----7---7-----7-----5---5-----5---5-----|
E|--0---------------0---------------------|


Chorus - x3
e|--------------------|
B|--------------------|
G|--------------------| 
D|--------5--7--5-44--|
A|------7-------------|
E|--0-----------------|


Chorus Ending v1 - x1
e|---------------------------|
B|---------------------------|
G|---------------------------| 
D|--------5--7--5-44---------|
A|------7------------77-55~--|
E|--0------------------------|

Chorus - x3

Chorus Ending v2 - x1
e|----------------------------|
B|----------------------------|
G|----------------------------| 
D|--------5--7--5-44----------|
A|------7------------77-55/7--|
E|--0-------------------------|

Verse v1 - x3

Verse Ending - x1

Verse v1 - x3

Verse Ending - x1

Verse v2 - x4

Chorus - x3

Chorus Ending v1 - x1

Chorus - x3

Chorus Ending v3 - x1

Break - x1
e|---------------------|
B|---------------------|
G|---------------------| 
D|---------------------|
A|--7h9-5-5h7-3-3h5-2--|
E|---------------------|

Solo - x1
e|------------------------------------------------------------------------|
B|------------------------------------------------------------------------|
G|------------------------------------------------------------------------| 
D|------------------------------------------------------------------------|
A|--77777777777777-99-55555555555555-77-33333333333333-55-22222222222222--|
E|------------------------------------------------------------------------|

Chorus - x3

Chorus Ending v2 - x1

Chorus - x3

Outro - x1
e|-----|
B|-----|
G|-----| 
D|--9--|
A|--9--|
E|--7--|




This is how I play it acoustically.

Intro/Verse v1 - x3
e|----------------------|
B|----------------------|
G|----------------------|
D|-----5----5--------4--|
A|--------7----7---5----|
E|--0------------0------|


Verse v1 Ending - x1
e|---------------------------------|
B|---------------------------------|
G|------------------------0--------| 
D|------5----5--------4-----4---4--|
A|---------7----7---5---5-----5----|
E|--0-------------0----------------|

Intro/Verse v1 - x1

Verse v1 Ending - x1

Intro/Verse v1 - x3

Verse v1 Ending - x1

Verse v2 - x4
e|----------------------------------------|
B|----------------------------------------|
G|----------0---------------0-------------| 
D|------5-----5---5-----4-----4---4----4--|
A|----7---7-----7-----5---5-----5---5-----|
E|--0---------------0---------------------|


Chorus - x3
e|---------------------|
B|---------------------|
G|---------------------| 
D|--2-x-5-7-5-44-xxxx--|
A|--2-x-5-7-5-44-xxxx--|
E|--0-x-3-5-3-22-xxxx--|


Chorus Ending - x1
e|-------------------------|
B|------------------33-----|
G|------------------22-----| 
D|--2-x-5-7-5-44-22-00-22--|
A|--2-x-5-7-5-44-22-00-22--|
E|--0-x-3-5-3-22-00-22-00--|

Chorus - x3

Chorus Ending - x1

Verse v1 - x3

Verse Ending - x1

Verse v1 - x3

Verse Ending - x1

Verse v2 - x4

Chorus - x3

Chorus Ending - x1

Chorus - x3

Chorus Ending - x1

Break - x1
e|-----------------------------------------------------------------------------------|
B|-----------------------------------------------------------------------------------|
G|----------------9--11-5----------------7--9--5----------------5--7--4--------------| 
D|----------------x--x--x----------------x--x--x----------------x--x--x--------------|
A|--5h7---5h7-----7--9--7--5h7---5h7-----5--7--3--5h7---5h7-----3--5--2--5h7---5h7---|
E|-----0-----0----0--0--0-----0-----0----0--0--0-----0-----0----0--0--0-----0-----0--|

Solo - x1
e|---------------------------------------------------------------------------|
B|---------------------------------------------------------------------------|
G|--99999999999999-11-11-77777777777777-99-55555555555555-77-44444444444444--| 
D|--xxxxxxxxxxxxxx-x--x--xxxxxxxxxxxxxx-xx-xxxxxxxxxxxxxx-xx-xxxxxxxxxxxxxx--|
A|--77777777777777-9--9--55555555555555-77-33333333333333-55-22222222222222--|
E|--00000000000000-0--0--00000000000000-00-00000000000000-00-00000000000000--|

Chorus - x3

Chorus Ending - x1

Chorus - x3

Outro - x1
e|-----|
B|-----|
G|-----| 
D|--9--|
A|--9--|
E|--7--|




It's only a little different this way but it gives it a more full sound.
Hope you like it!!


Lyrics:

Verse 1:

People come around
People let you down
Anywhere you go
Anyone you see
It's real
It's up to you to make it happen
It's up to you to make it real

Chorus:

And you know how it feels
To bleed some, to need some
And you know how it feels
To bleed some, to need some

Verse 2:

Tell me what you know
Tell me how you feel
It doesn't matter when you're down
And when look at me with your eyes
That smile on your face seems happy
Are you happy?
Suggest correction
Give kudos to tab author, rate the tab!
1 2 3 4 5
comments
print report bad tab
2 comments total.
+1 reply
bboylalu 279 Nov 16, 2009 03:17 PM

Awesome, thanks man. I can't believe there is no rating and no comment on your tab, though it's the best.

0 reply
majinvegetass5 156 Nov 24, 2009 07:18 PM

Hey, thanks man.
I'm going to edit this to show how I play it acoustically.
It's pretty sweet.

guest
You may want to rate the tab now too:
select rating
Wanna post a correction for this tab? Suggest correction