Oops, an error
Loading. Please wait.

Whats In The Eye Tab

version 1
version 1

Whole song

Interactive

723 views 3 this week
2 commentsread comments
1 2 3 4 5
please rate
add to favorites
launch autoscroll
font size
0
reset
how to read this tab
guitar tuner
Autoscroll
slow
fast
+/-
esc
set tempo
stop
Help us to improve Ultimate-Guitar.com Take our survey!
×
Author
Difficulty
intermediate
Grey Daze - What's in the eye (ver 2)  by Mateoz555

Tuning - Standard 

E-------------------7-------| 
B--------------0------------| 
G-----5-4-5-2----0----------| 
D-------------------------0-| x8 
A--0------------------------| 
E---------------------------|

E------------------------------------------------------------------------| 
B--------3---3-----------3---3--------5-5-3--5------------5-5-3--5-------| 
G----3-5---5---5-----3-5---5---5------5-5-3----5----------5-5-3----5-----| 
D--3---------------3---------------3--3-3--------3-----3--3-3--------3---|x2
A---------------------------------------------------0-------------------0| 
E------------------------------------------------------------------------|

E------------------| 
B--------3---3-----| 
G----3-5---5---5---| 
D--3---------------| 
A------------------| 
E------------------|

You choose the best beating or hiding in 2 last chords in first part, 
listen carfuly.
                      
                      { here }
E------------------------------|       E---------|
B------------------------------|       B---------|
G--5-5-5-6-6-6-6-7-7---3-------|       G--5--6---| 
D--5-5-5-6-6-6-6-7-7---3---5---| x4    D--5--6---| 
A--3-3-3-4-4-4-4-5-5---1---5---|       A--3--4---| 
E--------------------------3---|       E---------|   

again

E------------------------------------------------------------------------| 
B--------3---3-----------3---3--------5-5-3--5------------5-5-3--5-------| 
G----3-5---5---5-----3-5---5---5------5-5-3----5----------5-5-3----5-----| 
D--3---------------3---------------3--3-3--------3-----3--3-3--------3---|x2
A--------------------------------------------------0-------------------0-| 
E------------------------------------------------------------------------|

E------------------| 
B--------3---3-----| 
G----3-5---5---5---| 
D--3---------------| 
A------------------| 
E------------------|


E------------------------------|       E---------|
B------------------------------|       B---------|
G--5-5-5-6-6-6-6-7-7---3-------|       G--5--6---| 
D--5-5-5-6-6-6-6-7-7---3---5---| x4    D--5--6---| 
A--3-3-3-4-4-4-4-5-5---1---5---|       A--3--4---| 
E--------------------------3---|       E---------|


E----------------| 
B----------------| 
G---7777777777---| 
D---7777777777---| You will konow how long to play
A---5555555555---| 
E----------------|

E------------------------------------| 
B--------3---3-------5-5-3--5--------| 
G----3-5---5---5-----5-5-3----5------| 
D--3---------------3-3-3--------3----|x4 
A--------------------------------0---| 
E------------------------------------|

heya heya heya and someone is starting play solo but not we.
E---------------------| 
B---------------------| 
G---5-----------------| 
D---5---5---1---3---1-| 
A---3---5---3---3---1-| 
E-------3---3---1-----|

E-----------------------| 
B-----------------------| 
G---5---5---------------| 
D---5---5---5---3----1--| x4
A---7---3---5---3----1--| 
E-------3---3---1-------|

and that's all
Suggest correction
What's this?
You can suggest a correction to this tab. Community and Mods will review your correction and vote to approve or reject it.
comments
We did not receive enough feedback on this tab! Please rate:
print report bad tab
1 2 3 4 5
2 comments total.
0 reply
kopanskyy 12 wrote on November 10 2013, 04:20 pm

maybe its wrong in second line

0 reply
kopanskyy 12 wrote on November 10 2013, 04:22 pm

E---------------
B------3-5-3-5--
G----3---------3
D--3------------
A---------------
E---------------

guest
You may want to rate the tab now too:
select rating
Please do not post tabs as comments. Select "correction" instead!