Oops, an error
Loading. Please wait.

El Amor No Soporto Chords

18 views 1 this week
1 commentread comment
1 2 3 4 5
2 more votes to show rating
add to favorites
×
Save as Personal and add changes to this tab that will be seen only by you. Learn more ›
×
You can save this tab as Personal to edit and correct it or add notes. All changes will be seen only by you. Learn more »
save as personal
new!
launch autoscroll
font size
0
reset
transpose
0
reset
display chords
guitar tuner
Autoscroll
slow
fast
+/-
esc
set tempo
stop
Strumming
There is no strumming pattern for this song yet. and get +5 IQ
INTRO
e-0---------0-----------4-----------7---------------------------I
B-0------0------5---7-------7---5-------10------5---7---9-------I
G-1---1---------------------------------------------------------I
D---------------------------------------------------------------I
A--------------------------------------------5----------7-------I
E-0---------------------------------8---------------------------I


e---------------------------------------------------------------I
B-------------5---7----10---8---7---9---------------------------I
G----------------------9--------7---9---------------------------I
D-----7--6------------------------------------------------------I
A-------------------------------5---7---------------------------I
E-0--------------------8----------------------------------------I´

E                  C#m
Escapo de nuestras manos
               A
no pudimos detenerlo
                  Am - B
el alma perdio la fe
E                C#m
intentaron advertirnos
                    A
que no nos funcionaria
                     Am - B
este amor nos sorprendio

PRECORO:
F#m             B
empezamos otro dia
                   F#m
nos lastiman la ironia
                     A - B
fuimos todo y ahora nada

CORO
             E
y es que el amor no soporto
             G#m
todas las pruebas nos fallo
             A
dentro sentiamos que los dos
       F#m               B
perteneciamos a alguien mas

              E
y es que el amor no soporto
          fig. 1        fig. 2
falsos momentos de ilusion
          F#m
no queda nada que salvar
         A - B         E
solo recuerdos que borrar

TOCAR INTRO

E                    C#m
fuimos parte de un sueño
                   A
que engaño al sentimiento
                Am - B
y no vio el despertar

E                      G#m
tantas noches de extrañarnos
                  F#m
de sentirme a tu lado
                 Am - B
al final todo se cae

oh nooo!!!

PRECORO:

F#m              B
empezamos otro dia
                   F#m
nos lastiman la ironia
                    A - B
fuimos todo y ahora nada

CORO:
               E
y es que el amor no soporto
             G#m
todas las pruebas nos fallo
            A
dentro sentiamos que los dos
        F#m              B
perteneciamos a alguien mas

               E
y es que el amor no soporto
             Fig. 1    FiG. 2
falsos momentos de ilusion
          F#m
no queda nada que salvar
            A    B
solo recuerdooooos


PRECORO:

C#m             G#m
empezamos otro dia
                 F#m
nos lastiman la ironia
                     A  - B
fuimos todo y ahora nada
C#m
ooooooooooh

CORO: CAMBIO DE TONO

             F#
y es que el amor no soporto
            A#m
todas la pruebas nos fallo
             B
dentro sentiamos que los dos
      G#m                C#
perteneciamos a alguien mas

              F#
y es que el amor no soportoooo
          Fig.3      Fig. 4
falsos momentos de ilusion
           B
no queda nada que salvar
           Bm    C#
solo recuerdoooos.....
       F#
que borrar...

OUTRO

e--2------2----------6------------9-----------------------------I
B--2----2-----7---9------9---7-------12---7---9---11-----4--3---I
G--3--3---------------------------------------------------------I
D---------------------------------------------------------------I
A-----------------------------------------7-------9-------------I
E--2-----------------------------10-------------------2---------I


e---------------------------2-----------------------------------I
B--12---10----9-----------2-------------------------------------I
G--11---------9---------3---------------------------------------I
D---------------------4-----------------------------------------I
A-------------7-----4-------------------------------------------I
E--10-------------2---------------------------------------------I


LOS SIGUIENTES ACORDES SON TRISONANTES Y LOS COMO FIG. 1 - 2- 3 - 4


FIG. 1      FIG.2     FIG. 3     FIG. 4

e--------I---------I----------I-----------I
B--7-----I---6-----I-----9----I----8------I
G--7-----I---6-----I-----9----I----8------I
D--------I---------I----------I-----------I
A--5-----I---4-----I-----7----I----6------I
E--------I---------I----------I-----------I
Suggest correction
Give kudos to tab author, rate the tab!
1 2 3 4 5
comments
print report bad tab
1 comment total.
0 reply
angie_st 48 Jan 10, 2016 05:34 AM

I find that the chords in the song are not accurate at all, sorry. word word word word word word

guest
Wanna post a correction for this tab? Suggest correction