Oops, an error
Loading. Please wait.

In The Hall Of The Mountain King Tab

version 2
version 2

Whole song

Interactive

Video

190,339 views 759 this week
4 commentsread comments
1 2 3 4 5
accurate
x 22
add to favorites
launch autoscroll
font size
0
reset
how to read this tab
guitar tuner
Tab Pro tools
  • play this tab
  • loop segment
  • change instrument
  • show fretboard
  • metronome
Autoscroll
slow
fast
+/-
esc
set tempo
stop
Contributor
Hey guys, this is my first tab, and i know that it is 100% correct. It is an easier 
of this song, so it is pretty easy to play it.

Song: Hall of the Mountain King
Artist: Grieg

Standard tuning

e:-----------------------------------------|
b:-----------------------------------------|
g:-----------------------------------------|
d:---------0--2-----2--1-----2--0-----0----|
a:0--2--3--------3--------2----------------|
E:-----------------------------------------|

e:-----------------------------------------|
b:-----------------------------------------|
g:---------------------2--0-----------0----|
d:---------0--2-----2--------2-----2-------|
a:0--2--3--------3--------------3----------|
E:-----------------------------------------|            Repeat x2

~~~~~~~~~~~~~~~~~~~~~~~~~~~~~~~~~~~~~~~~~~~~~~~~~~~~~~~~~~~~~~~~~~~~

e:-----------------------------------------|
b:------------0----0--1-----1--0-----0-----|
g:------1--2-----1-------2--------1--------|
d:2--4-------------------------------------|
a:-----------------------------------------|
E:-----------------------------------------|

e:-----------------------------------------|
b:------------0----0--1-----1--0-----------|
g:------1--2-----1-------2-----------------|
d:2--4-------------------------------------|
a:-----------------------------------------|
E:-----------------------------------------|          Repeat x2

~~~~~~~~~~~~~~~~~~~~~~~~~~~~~~~~~~~~~~~~~~~~~~~~~~~~~~~~~~~~~~~~~~~~~~~

e:------------0-----0--------------------------------|
b:---0--1--3-----1-----4--0--4--3-----3-----0--1--3--|
g:2--------------------------------3-----2-----------|
d:---------------------------------------------------|
a:---------------------------------------------------|
E:---------------------------------------------------|

e:0-----0--5--3--0-----0--3----------------|
b:---1--------------1----------------------|
g:-----------------------------------------|
d:-----------------------------------------|
a:-----------------------------------------|
E:-----------------------------------------|

e:------------0-----0--------------------------------|
b:---0--1--3-----1-----4--0--4--3-----3-----0--1--3--|
g:2--------------------------------3-----2-----------|
d:---------------------------------------------------|
a:---------------------------------------------------|
E:---------------------------------------------------|

e:--------------------------------|
b:1--0----------------------------|
g:------2-----2-------------------|
d:---------1----------------------|
a:--------------------------------|
E:--------------------------------|

thats it! have fun...its easy
comments
print report bad tab
4 comments total. Showing first comments.
0 reply
sandwich_man wrote on September 25 2005, 10:16 am

there are better tabs.

-1 reply
stringsquealer wrote on June 20 2008, 05:25 pm

good job, but u messed up on the 1st and 2nd sections. it should be like thiss:

e:-----------------------------------------|
b:-----------------------------------------|
g:-----------------------------------------|
d:---------0--2-----2--1-----2--0-----0----|
a:0--2--3--------3--------2--------1-------|
E:-----------------------------------------|

e:-----------------------------------------|
b:-----------------------------------------|
g:---------------------2--0-----------0----|
d:---------0--2-----2--------2-----2-------|
a:0--2--3--------3--------------3----------|
E:-----------------------------------------| Repeat x2

~~~~~~~~~~~~~~~~~~~~~~~~~~~~~~~~~~~~~~~~~~~~~~~~~~~~~~~~~~~~~~~~~~~~

e:-----------------------------------------|
b:------------0----0--1-----1--0-----0-----|
g:------1--2-----1-------1--------1--------|
d:2--4-------------------------------------|
a:-----------------------------------------|
E:-----------------------------------------|

e:-----------------------------------------|
b:------------0----0--1-----1--0-----------|
g:------1--2-----1-------1-----------------|
d:2--4-------------------------------------|
a:-----------------------------------------|
E:-----------------------------------------| Repeat x2

+7 reply
stringsquealer wrote on June 20 2008, 05:27 pm

lol sorry i messud up too. it should be like this:


e:-----------------------------------------|
b:-----------------------------------------|
g:-----------------------------------------|
d:---------0--2-----2--1-----1--0-----0----|
a:0--2--3--------3--------2--------1-------|
E:-----------------------------------------|

e:-----------------------------------------|
b:-----------------------------------------|
g:---------------------2--0-----------0----|
d:---------0--2-----2--------2-----2-------|
a:0--2--3--------3--------------3----------|
E:-----------------------------------------| Repeat x2

~~~~~~~~~~~~~~~~~~~~~~~~~~~~~~~~~~~~~~~~~~~~~~~~~~~~~~~~~~~~~~~~~~~~

e:-----------------------------------------|
b:------------0----0--1-----1--0-----0-----|
g:------1--2-----1-------1--------1--------|
d:2--4-------------------------------------|
a:-----------------------------------------|
E:-----------------------------------------|

e:-----------------------------------------|
b:------------0----0--1-----1--0-----------|
g:------1--2-----1-------1-----------------|
d:2--4-------------------------------------|
a:-----------------------------------------|
E:-----------------------------------------| Repeat x2

I want to post or [tab]
guest
You may want to rate the tab now too:
select rating
Please do not post tabs as comments. Select "correction" instead!