Oops, an error
Loading. Please wait.

Hard Act To Follow bass

version 2
version 2

Whole song

Interactive

423 views 1 this week
1 commentread comment
1 2 3 4 5
3 more votes to show rating
add to favorites
×
Save as Personal and add changes to this tab that will be seen only by you. Learn more ›
×
You can save this tab as Personal to edit and correct it or add notes. All changes will be seen only by you. Learn more »
launch autoscroll
font size
0
reset
guitar tuner
edit
Autoscroll
slow
fast
+/-
esc
set tempo
stop
Author
Difficulty
Stand Tuning:
pritty sure this is right seen him play it a few times and when i play it with my
band it sounds good
any info koat100@hotmail.com
Intro:

G:--------------------------|
D:--------------------------|
A:------------------5-------|
E:---7-7-7--7-7--7-5--5--0--|

"ill be shootin for thrills when i walk out this door"(guitar p.m.)
G:------------------------------|
D:------------------------------|
A:----------55555555------------|
E:-00000000----------5555555-5~-|

Chorus:

G:------------------------------------------------|
D:------------------------------------------------|
A:-------------5-5-7-5h-7p------------------------|
E:-7-7-7-7-7-7--------------5-5-5-5-5-5--333--555-|


breakdown/solo:

when drums come in play E:3-3-3--5-5-5
then

G:----------------------------------------------|
D:----------------------------------------------|
A:-------------5--------------------------------|
E:-7-7-7-x-7-5---5~-5-0-0-0-x-x-3-3-3-x-x-5-5-5-|


finish on

A:-2~

            
            
Suggest correction
Creating personal tab
Creating personal tab
You can edit any tab online and save it as your Personal.

You can edit, replace or remove any tab part or add personal notes – all changes will be seen only by you.

Personal tabs can be accessed anytime from any device, even offline.
Learn more »
Give kudos to tab author, rate the tab!
1 2 3 4 5
comments
print report bad tab
1 comment total.
0 reply
Davo_deluxe 31 Oct 05, 2013 10:04 PM

if you listen to the song carefully and hone ur sences on just the bass u can hear alot of its wrong. i am a guitar player but trying to teach my gf to play and sometimes for bass it is alot easier to learn by listening to the song.

guest
You may want to rate the tab now too:
select rating
Wanna post a correction for this tab? Suggest correction