Oops, an error
Loading. Please wait.

Hard Act To Follow Tab

version 3
version 3

Whole song

Interactive

400 views 3 this week
no commentswrite comment
1 2 3 4 5
3 more votes to show rating
add to favorites
×
Save as Personal and add changes to this tab that will be seen only by you. Learn more ›
×
You can save this tab as Personal to edit and correct it or add notes. All changes will be seen only by you. Learn more »
save as personal
new!
launch autoscroll
font size
0
reset
how to read this tab
guitar tuner
Autoscroll
slow
fast
+/-
esc
set tempo
stop
Author
Difficulty
novice
                     Hard act to follow
                       by Grinspoon
                  Tabbed by Oliver Hatton


[---------------------------------------------------------------]
[---------------------------------------------------------------]
[---------------------------------------------------------------]  x8
[-------------------7-------------------------------------------]
[-9-9-x-9-9-x-9-9-7-5-7-----------------------------------------]
[-7-7-x-7-7-x-7-7-5---5-----------------------------------------]


[---------------------------------------------------------------]
[---------------------------------------------------------------]
[---------------------------------------------------------------]
[----------------77777777---------------------------------------]
[222222222222222255555555777777777------------------------------]
[0000000000000000--------555555555------------------------------]


[---------------------------------------------------------------]
[---------------------------------------------------------------]
[---------------------------------7-7-7-------------------------]  x2
[-----------7-7-7-7-7-------------5-5-5-------------------------]
[9-9-9-9-9--5-5-5-5-5--7-7-7-7-7---------7-7-7------------------]
[7-7-7-7-7-------------5-5-5-5-5---------5-5-5------------------]


[---------------------------------------------------------------]
[---------------------------------------------------------------]
[---------------------------------------------------------------]  x4
[-------------------7-------------------------------------------]
[-9-9-x-9-9-x-9-9-7-5-7-----------------------------------------]
[-7-7-x-7-7-x-7-7-5---5-----------------------------------------]


[---------------------------------------------------------------]
[---------------------------------------------------------------]
[---------------------------------------------------------------]
[----------------77777777---------------------------------------]
[222222222222222255555555777777777------------------------------]
[0000000000000000--------555555555------------------------------]

[---------------------------------------------------------------]
[---------------------------------------------------------------]
[---------------------------------7-7-7-------------------------]  x2
[-----------7-7-7-7-7-------------5-5-5-------------------------]
[9-9-9-9-9--5-5-5-5-5--7-7-7-7-7---------7-7-7------------------]
[7-7-7-7-7-------------5-5-5-5-5---------5-5-5------------------]


[---------------------------------------------------------------]
[---------------------------------------------------------------]
[---------------------------------7-7-7--9-9-9------------------]  x2
[-----------7-7-7-7-7-------------5-5-5--7-7-7------------------]
[9-9-9-9-9--5-5-5-5-5--7-7-7-7-7--------------------------------]
[7-7-7-7-7-------------5-5-5-5-5--------------------------------]


[---------------------------------------------------------------]
[---------------------------------------------------------------]
[---------------------------------------------------------------]
[----------7----------------------------------------------------]
[9-9-x-7-9-5-7-7-7-7-2-2-2-2-5-55x-7-77x------------------------]
[7-7-x-5-7---5-5-5-5-0-0-0-0-3-33x-5-55x------------------------]


  Guitar 1 solo
[---------------------------------------------------------------]
[-----------------------------1212---------7--------------------]
[------------------9-7----11b-----14b~15b~~--9-7-9--------------]
[-4-5-7~4-7-9~9-7-9----9~---------------------------------------]
[---------------------------------------------------------------]
[---------------------------------------------------------------]

 Guitar 2

[---------------------------------------------------------------]
[---------------------------------------------------------------]
[---------------------------------------------------------------]
[----------7----------------------------------------------------]
[9-9-x-7-9-5-7-7-7-7-2-2-2-2-5-55x-7-77x------------------------]
[7-7-x-5-7---5-5-5-5-0-0-0-0-3-33x-5-55x------------------------]


 Guitar 1
[---77--77--77--77--77--10b--12b10p-----------------------------]
[-7b--7b--7b--7b--7b---------------10h12------------------------]
[---------------------------------------------------------------]
[---------------------------------------------------------------]
[---------------------------------------------------------------]
[---------------------------------------------------------------]

 Guitar 2

[---------------------------------------------------------------]
[---------------------------------------------------------------]
[---------------------------------------------------------------]
[----------7----------------------------------------------------]
[9-9-x-7-9-5-7-7-7-7-2-2-2-2-5-55x-7-77x------------------------]
[7-7-x-5-7---5-5-5-5-0-0-0-0-3-33x-5-55x------------------------]


[---------------------------------------------------------------]
[---------------------------------------------------------------]
[---------------------------------------------------------------]  x2
[----------------77777777---------------------------------------]
[222222222222222255555555777777777------------------------------]
[0000000000000000--------555555555------------------------------]

[---------------------------------------------------------------]
[---------------------------------------------------------------]
[---------------------------------7-7-7-------------------------]  x3
[-----------7-7-7-7-7-------------5-5-5-------------------------]
[9-9-9-9-9--5-5-5-5-5--7-7-7-7-7---------7-7-7------------------]
[7-7-7-7-7-------------5-5-5-5-5---------5-5-5------------------]


[---------------------------------------------------------------]
[---------------------------------------------------------------]
[---------------------------------7-7-7-------------------------]  
[-----------7-7-7-7-7-------------5-5-5-------------------------]
[9-9-9-9-9--5-5-5-5-5--7-7-7-7-7---------7-7-7--9~--------------]
[7-7-7-7-7-------------5-5-5-5-5---------5-5-5--7~--------------]
Suggest correction
Give kudos to tab author, rate the tab!
1 2 3 4 5
comments
print report bad tab
guest
You may want to rate the tab now too:
select rating
Wanna post a correction for this tab? Suggest correction