Oops, an error
Loading. Please wait.

Replacements Tab

104 views 1 this week
1 commentread comment
1 2 3 4 5
3 more votes to show rating
add to favorites
launch autoscroll
font size
0
reset
how to read this tab
guitar tuner
Autoscroll
slow
fast
+/-
esc
set tempo
stop
Help us to improve Ultimate-Guitar.com Take our survey!
×
Author
Difficulty
Tuning
intermediate
D A D G B E
This is my first tab, hope it doesn't suck.

Artist:    Grinspoon
Album:     Thrills Kills and Sunday Pills (2004)
Song:      Replacements
Tabbed by: TheReserve

Intro/Verse:

Guitar 1
e|-------------------------------------------------------|
B|-------------------------------------------------------|
G|-------------------------------------------------------|
D|------5---4------------------------5---7---------------|
A|--------------5---2---0h-2p0----------------7---5---2--|
D|--0-0---0---0---0---0--------0-0-----0---0---0---0-----|



Guitar 2 (before the vocals come in)
e|-------------------------------------------------------|
B|-------------------------------------------------------|
G|-------------------------------------------------------|
D|--------------------------(5)--------------------------|
A|----------------------(5)------------------------------|
D|-------------------------------------------------------| x2

Bridge

e|------------------------------|
B|------------------------------|
G|------------------------------|
D|------5----------3--------0---|
A|----5---5------3--------0---0-|
D|--5----------3--------0-------| x3


e|----------------------------------|
B|----------------------------------|
G|----------------------------------|
D|------5----------3--------0-------|
A|----5---5------3--------0---0-----|
D|--5----------3--------0--------0--| x1

Chorus
                                ...There's an emptiness there...
e|-----------------------------|--------------------------|
B|-----------------------------|--------------------------|
G|-----------------------------|--------------------------|
D|--5-5-5-5---5p-0---0-0-0-0---|----3-3-3-3-----5-5-5-5---|
A|--5-5-5-5---5p-0---0-0-0-0---|----3-3-3-3-----5-5-5-5---|
D|--5-5-5-5---5p-0---0-0-0-0---|----3-3-3-3-----5-5-5-5---|



Repeat intro/verse section, ending on
e|---------|
B|---------|
G|---------|
D|---------|
A|---------|
D|--0-0----| (Let ring)


Enjoy
Suggest correction
Give kudos to tab author, rate the tab!
1 2 3 4 5
comments
print report bad tab
1 comment total.
0 reply
Washya 675 Mar 28, 2013 01:29 AM

Song is more like this
Intro/Verses
E|----------------------------------------------|
B|----------------------------------------------|
G|----------------------------------------------|
D|---5---4-------------------5---4---/7---------|
A|-----------3---2---3p2p0----------------3---2-|
D|-0---0---0---0---0-------0---0---0----0---0---|
PM * * * * * * * * * *

Part 2
E|-------------------------|
B|-------------------------|
G|-------------------------|
D|-----3-------5-------0---|
A|---3---3---5---5---0---0-|
D|-3-------5-------0-------|

Chorus
E|--------------------------------------|
B|--------------------------------------|
G|--------------------------------------|
D|-444444-2--222-2------------4444-44-2-|
A|-222222-0--000-0--555-55-22-2222-22-0-|
D|------------------555-55-22-----------|

guest
You may want to rate the tab now too:
select rating
Wanna post a correction for this tab? Suggest correction