Oops, an error
Loading. Please wait.

En Decadencia Tab

9 views 1 this week
no commentswrite comment
1 2 3 4 5
3 more votes to show rating
add to favorites
launch autoscroll
font size
0
reset
how to read this tab
guitar tuner
Autoscroll
slow
fast
+/-
esc
set tempo
stop
Help us to improve Ultimate-Guitar.com Take our survey!
×
Intro/Coro

          "En decadencia"
e)-------------------
B)-------------------
G)--------7--5--3----
D)-5-5----7--5--3--3-
A)-5-5----5--3--1--3-
E)-3-3-------------1-
   SOL    RE DO SI FA


Verso/Interlude

e)-------------------------------
B)-------------------------------
G)-------------------------------
D)-5-------8-------3-------5-----
A)-5-(x5)-8-(x5)-3-(x5)-5-(x5)
E)-3-------6-------1-------3-----
   SOL     DO      FA     SOL


solo

e)-----------------------------------------------------------------------
B)-----------------------------------------------------------------------
G)-----------3-----3-3b5-3b5-3---------------------------------3---------
D)--55-5-3-5---5-5-------------5-3-5--555--55-5-3---3-------35---5-3b5---
A)------------------------------------555---------5---5--35--------------
E)------------------------------------333--------------------------------
                                      SOL
e)----------------------------------------------------
B)----------------------------------------------------
G)---------------------------------------------121212-
D)---------------8------8--8b10-(x6)----10-8--121212-
A)--1010-10-8-10---10-10--------------------10-101010-
E)----------------------------------------------------
                                                SOL
-------------------------------------
-------------------------------------
-------------------------------------
---------------------------8---------
-1010-10-8----8--------810---10-8b10-
-----------10---10--810--------------

Estructura:

Intro     (x3)
Verso     (x4)
coro      (x2)
Verso     (x4)
coro      (x2)
Interlude (x2)
solo
coro      (x2)

Un Saludo pa los compas de hillo y su bro Benji
Suggest correction
Give kudos to tab author, rate the tab!
1 2 3 4 5
comments
print report bad tab
guest
You may want to rate the tab now too:
select rating
Wanna post a correction for this tab? Suggest correction