Oops, an error
Loading. Please wait.

My Life Be Like Ohh Ahh Tab

4,910 views 24 this week
no commentswrite comment
1 2 3 4 5
please rate
add to favorites
launch autoscroll
font size
0
reset
how to read this tab
guitar tuner
Autoscroll
slow
fast
+/-
esc
set tempo
stop
Help us to improve Ultimate-Guitar.com Take our survey!
×
Author
Capo
2nd fret
-----------------------------------------------------------------------------
                      My Life Be Like (Ohh Ahh) - Grits
-----------------------------------------------------------------------------
Tabbed by:Zoppl

Tuning:Standard
Capo: 2nd fret

This is one of my first tabs so i hope it will help you :)
I think it is not the original tab but it sounds quite good!

In fact the song only contains 3 chords in this order:


| Am | G | C | Am |


My life be like 
Am     G
Ohh....Ahh....
C      Am  
Ohh....Ahh (My life be like)
Am     G
Ohh....Ahh....
C      Am
Ohh....Ahh....


In the vers it's something like that but you can mess around like you want!:

e|----------0--------|----------3--------|
B|------1-----1---1--|------0-----0---0--|
G|----2---2-----2----|----0---0-----0----|
D|-------------------|-------------------|
A|--0----------------|-------------------|
E|-------------------|--3----------------|

e|----------0--------|----------0--------|
B|------1-----1---1--|------1-----1---1--|
G|----0---0-----0----|----2---2-----2----|
D|-------------------|-------------------|
A|--3----------------|--0----------------|
E|-------------------|-------------------|


This part is played quite fast but you will get used to it!


Enjoy playing! :)
Suggest correction
Give kudos to tab author, rate the tab!
1 2 3 4 5
comments
print report bad tab
guest
You may want to rate the tab now too:
select rating
Wanna post a correction for this tab? Suggest correction