Oops, an error
Loading. Please wait.

Knife tab

version 1
version 1

Whole song

Interactive

25,454 views 3 this week
2 commentsread comments
1 2 3 4 5
x 4
add to favorites
×
Save as Personal and add changes to this tab that will be seen only by you. Learn more ›
×
You can save this tab as Personal to edit and correct it or add notes. All changes will be seen only by you. Learn more »
launch autoscroll
font size
0
reset
how to read this tab
guitar tuner
edit
Autoscroll
slow
fast
+/-
esc
set tempo
stop
Author
Difficulty
-------------------------------------------------------------------------------
                             KNIFE - Grizzly Bear
-------------------------------------------------------------------------------
If there's any mistakes, let me know! This is my first tab ever, and there needs to be
more accurate Grizzly Bear tabs online :)

Tabbed by: Kevin Krull
Email: kkrull.email@gmail.com

Tuning: Standard

Intro (actually lasts throughout): 

e|---------------------------------------------------------------------------|
B|---------1st-time-through-slide-back-up-to-the-start-----------------------|
G|---------------------------------------------------------------------------|
D|7-7-x-7-7-7-x-7-7-7-x-7-7-7-7-2-4-4-x-4-4-4-x-4-4-4-x-4-4-4-4--------------|
A|9-9-x-9-9-9-x-9-9-9-x-9-9-9-9-4-6-6-x-6-6-6-x-6-6-6-x-6-6-6-6--X2,then-----|
E|9-9-x-9-9-9-x-9-9-9-x-9-9-9-9-4-6-6-x-6-6-6-x-6-6-6-x-6-6-6-6--------------|

e|---------------------------------------------------------------------------|
B|---------------------------------------------------------------------------|
G|---------------------------------------------------------------------------|
D|9--9--x-9--9--9--x-9--9--9--x-9--9--9--9--7-7-x-7-7-7-x-7-7-7-x-7-7-7-7----|
A|11-11-x-11-11-11-x-11-11-11-x-11-11-11-11-9-9-x-9-9-9-x-9-9-9-x-9-9-9-9-X2-|
E|11-11-x-11-11-11-x-11-11-11-x-11-11-11-11-9-9-x-9-9-9-x-9-9-9-x-9-9-9-9----|

Chords

B
i want you to know
G#
when i look in your eyes
B
with every blow
G#
comes another lie

C#
you think its alright
B
you think its alright
C#
you think its alright
B
you think its alright

E                  B A E
can't you feel the knife?
                   B   A  E
can't you feel the knife? ohh
                   B   A  E
can't you feel the knife? ohh
                   B A    G# A F#
can't you feel the knife? ohh ohh

            
            
Suggest correction
Creating personal tab
Creating personal tab
You can edit any tab online and save it as your Personal.

You can edit, replace or remove any tab part or add personal notes – all changes will be seen only by you.

Personal tabs can be accessed anytime from any device, even offline.
Learn more »
comments
print report bad tab
2 comments total.
0 reply
modernrocko 171 Jul 19, 2007 05:19 PM

nice job, sounds pretty accurate to me. glad to find another grizzly bear fan on here. I just submitted a tab for shift (the acoustic version-- search for it on youtube, it's amazing) so that should be posted here within 24 hours or so, whenever they get around to uploading it B-)

0 reply
ksmalls 136 Jul 30, 2008 11:21 PM

I think you have the chords inverted, making them minor, because it doesn't sound right to me. Cause if you try just playing the root notes with song it sounds completely off, but if you play a Bmaj barre chord instead of an inverted chord, it sounds fine. Plus if you played them all like this, then they would all be minor, and the song has major and minor chords in it.

so the chords should be
B Maj
--7--
--7--
--8--
--9--
--9--
--7--

F# Maj
--2--
--2--
--5--
--4--
--4--
--2--

G# Min
--4--
--4--
--4--
--6--
--6--
--4--

and then

D# Major
--9--
--9--
-10--
-11--
-11--
--9--

I'll post my version and see if you think its correct.

guest
You may want to rate the tab now too:
select rating
Wanna post a correction for this tab? Suggest correction