Oops, an error
Loading. Please wait.

Ready Able bass

version 1
version 1

Whole song

Interactive

3,742 views 6 this week
1 commentread comment
1 2 3 4 5
x 4
add to favorites
×
Save as Personal and add changes to this tab that will be seen only by you. Learn more ›
×
You can save this tab as Personal to edit and correct it or add notes. All changes will be seen only by you. Learn more »
launch autoscroll
font size
0
reset
guitar tuner
edit
Autoscroll
slow
fast
+/-
esc
set tempo
stop
Author
Fairly easy song, just listen for the rhythm. Might want some reverb.

Verse
G--------------------|
D--------------------|
A---33333333333------|
E--------------------|

play this Tremelo until the Refrain, Using your middle finger to mute the note.

Refrain
G--------------5/7-------------------5/7----5---|
D----3-------------------3----------------------|
A-----------------------------------------------|
E-----------------------------------------------|

G--------------4/7-------------------4/7----4---|
D----2-------------------2----------------------|
A-----------------------------------------------|
E-----------------------------------------------|

G--------------5/7-------------------5/7----5---|
D----3-------------------3----------------------|
A-----------------------------------------------|
E-----------------------------------------------|

G--------------4/7-------------------4----0--------|
D----2-------------------2---------------------0---|
A--------------------------------------------------|
E--------------------------------------------------|

Verse
Refrain

and then there's the weird bit, its in 3-4 timing which can be difficult, give it a good 
and you'll notice the phrases are in 3 bars.

G------------------------------|
D---------------2--------------|
A----0-----------------3-3-----|
E------------------------------|

G---------------4------0-0-----|
D----2-------------------------|
A------------------------------|
E------------------------------|

G---------------2--------------|
D----0-----------------0-0-----|
A------------------------------|
E------------------------------|

G------------------------------|
D---------------2--------------|
A----0-----------------3-3-----|
E------------------------------|

G---------------4----7----4----|
D----2-------------------------|
A------------------------------|
E------------------------------|

G---------------2--------------|
D----0-----------------0-0-----|
A------------------------------|
E------------------------------|

Play all this twice and then repeat the last bar
this continues right through to the end. You may wish to add flourishes.
Suggest correction
Creating personal tab
Creating personal tab
You can edit any tab online and save it as your Personal.

You can edit, replace or remove any tab part or add personal notes – all changes will be seen only by you.

Personal tabs can be accessed anytime from any device, even offline.
Learn more »
comments
print report bad tab
1 comment total.
0 reply
edfred91 50 Jun 01, 2010 09:54 AM

please rate.

guest
You may want to rate the tab now too:
select rating
Wanna post a correction for this tab? Suggest correction