Oops, an error
Loading. Please wait.

Sleeping Ute Tab

20,608 views 57 this week
1 commentread comment
1 2 3 4 5
excellent!
x 11
add to favorites
launch autoscroll
font size
0
reset
how to read this tab
guitar tuner
Autoscroll
slow
fast
+/-
esc
set tempo
stop
Help us to improve Ultimate-Guitar.com Take our survey!
×
Author
Difficulty
intermediate
Sleeping Ute
by Grizzly Bear
Tabbed by Stephen Glenn

Thanks to stchooligan on YouTube for the videos

Grizzly Bear Sleeping Ute Chords and Tuning
http://www.youtube.com/watch?v=EtS-AlfCYTI
Slowed down learning video
http://www.youtube.com/watch?v=ZvAHLbesl9A

Tuning
E A C# F# A C#

C#|---------0-----5-0---0----0----------0-----5-0---0----0-------------|
A |---------0-----0-0---0h2---2p0-------0-----0-0---0h2---2p0----------|
F#|*--------0-----5-0---0-----0---------0-----5-0---0-----0------------|
C#|*--x---x---0-------0-0h2---2p0-x-x-x---0-------0-0h2---2p0----------|
A |---x---x-----0-----------------x-x-x-----0--------------------------|
E |---x---------------------------x------------------------------------|

C#|---------2-----5-2---2-----2---------------2-----5-2---2-----2------|
A |---------2-----2-2---2h4----4p2------------2-----2-2---2h4----4p2---|
F#|---------2-----5-2---2------2--------------2-----5-2---2------2----*|
C#|-------2---2-------2-2------2------------2---2-------2-2------2----*|
A |-----2-------2-------------------------2-------2--------------------|
E |---2---------------------------------2------------------------------|

C#|---------7-----12-7---7----7-------|
A |---------7-----12-7---7h9----9p7---|
F#|*--------7-----12-7---7------7----*|
C#|*------7---7--------7-7------7----*|
A |-----7-------7---------------------|
E |---9-------------------------------|

C#|---------------12-7---7----7-------|
A |-----------7---12-7---7h9----9p7---|
F#|*------------7-12-7---7------7----*|
C#|*------8------------7-7------7----*|
A |-----0---9-------------------------|
E |---9-------------------------------|

C#|---------7-----12-7---7----7-------|
A |---------7-----12-7---7h9----9p7---|
F#|*--------7-----12-7---7------7----*|
C#|*------7---7--------7-7------7----*|
A |-----7-------7---------------------|
E |---9-------------------------------|

Dreamed a long day...
C#|-------5---------5---------5---------5-------|
A |-----5-----5---5-----5---5-----5---5-----5---|
F#|*--------------------------------------------|
C#|*--5---------7---------5---------7-----------|
A |---------------------------------------------|
E |---------------------------------------------|

C#|-------5---------5---------5---5-----5---5---|
A |-----5-----5---5-----5---5---5-----5---5-----|
F#|---------------------------------------------|
C#|---5---------7---------5---------7-----------|
A |---------------------------------------------|
E |---------------------------------------------|

C#|---------0-----5-0---0----0----------0-----5-0---0----0-------------|
A |---------0-----0-0---0h2---2p0-------0-----0-0---0h2---2p0----------|
F#|---------0-----5-0---0-----0---------0-----5-0---0-----0-----------*|
C#|---x---x---0-------0-0h2---2p0-x-x-x---0-------0-0h2---2p0---------*|
A |---x---x-----0-----------------x-x-x-----0--------------------------|
E |---x---------------------------x------------------------------------|

C#|-------5---------5---------5---------5-------|
A |-----5-----5---5-----5---5-----5---5-----5---|
F#|---------------------------------------------|
C#|---5---------7---------5---------7-----------|
A |---------------------------------------------|
E |---------------------------------------------|

C#|-------5---------5-----------5---------5-------|
A |-----5-----5---5-----5---5-------5---5-----5---|
F#|---------------------------5---5---------------|
C#|---5---------7---------5-----------7-----------|
A |-----------------------------------------------|
E |-----------------------------------------------|

C#|-------7----------7---------7----------7-------|
A |-----7-----7----7-----7---7-----7----7-----7---|
F#|-----------------------------------------------|
C#|---7---------10--------7----------10-----------|
A |-----------------------------------------------|
E |-----------------------------------------------|

C#|-------7----------7---------7---7------7---7---|
A |-----7-----7----7-----7---7---7------7---7-----|
F#|-----------------------------------------------|
C#|---7---------10--------7----------10-----------|
A |-----------------------------------------------|
E |-----------------------------------------------|

But I can't help myself
C#|---0-------------------------------------------|
A |---0-------------------------------------------|
F#|---0-------------------------------------------|
C#|---2-------------------------------------------|
A |---2-------------------------------------------|
E |---2-------------------------------------------|

Repeat from beginning, then go on to Outro 1

OUTRO 1

C#|---5-----5-----5-----5-----5-----5-----5-----5-----5-----5-----5-----5---|
A |----5-----5-----5-----5-----5-----5-----5-----5-----5-----5-----5-----5--|
F#|-----5-----5-----5-----5-----5-----5-----5-----5-----5-----5-----5-----5-|
C#|-------------5-----------5-----------------------5-----------5-----------|
A |-------7-----------7-----------7-----------5-----------5-----------5-----|
E |-7-----------------------------------7-----------------------------------|

C#|---5-----5-----5-----5-----5-----5-----5-----5-----5-----5-----5-----5---|
A |----5-----5-----5-----5-----5-----5-----5-----5-----5-----5-----5-----5--|
F#|-----5-----5-----5-----5-----5-----5-----5-----5-----5-----5-----5-----5-|
C#|-------------8-----------8-----------------------7-----------7-----------|
A |-------5-----------5-----------5-----------5-----------5-----------5-----|
E |-7-----------------------------------7-----------------------------------|

C#|---4-----4-----4-----4-----4-----4-----4-----4-----4-----4-----4-----4---|
A |----4-----4-----4-----4-----4-----4-----4-----4-----4-----4-----4-----4--|
F#|*----4-----4-----4-----4-----4-----4-----4-----4-----4-----4-----4-----4*|
C#|*------------8-----------8-----------------------4-----------4----------*|
A |-------4-----------4-----------4-----------4-----------4-----------4-----|
E |-4-----------------------------------4-----------------------------------|

Repeat Outro 1 three more times then go on to Outro 2

OUTRO 2

C#|---0-----0-----0-----0-----0-----0-----0-----0-----0-----0-----0-----0---|
A |----0-----0-----0-----0-----0-----0-----0-----0-----0-----0-----0-----0--|
F#|*----0-----0-----0-----0-----0-----0-----0-----0-----0-----0-----0-----0-|
C#|*------------2-----------2-----------------------2-----------2-----------|
A |-------2-----------2-----------2-----------2-----------2-----------2-----|
E |-2-----------------------------------2-----------------------------------|

C#|---0-----0-----0-----0-----0-----0-----0-----0-----0-----0-----0-----0---|
A |----0-----0-----0-----0-----0-----0-----0-----0-----0-----0-----0-----0--|
F#|-----0-----0-----0-----0-----0-----0-----0-----0-----0-----0-----0-----0*|
C#|-------------0-----------0-----------------------0-----------0----------*|
A |-------0-----------0-----------0-----------0-----------0-----------0-----|
E |-0-----------------------------------0-----------------------------------|

C#|---0-----0-----0-----0-----0-----0-----0-----0-----0-----0-----0-----0---|
A |----0-----0-----0-----0-----0-----0-----0-----0-----0-----0-----0-----0--|
F#|-----0-----0-----0-----0-----0-----0-----0-----0-----0-----0-----0-----0-|
C#|-------------2-----------2-----------------------2-----------2-----------|
A |-------2-----------2-----------2-----------2-----------2-----------2-----|
E |-2-----------------------------------2-----------------------------------|

C#|-(0)----------------------------|
A |-(0)----------------------------|
F#|-(0)----------------------------|
C#|--------------------------------|
A |--------------------------------|
E |-(0)----------------------------|
Suggest correction
comments
print report bad tab
1 comment total.
+1 reply
AstralTraveller 61 wrote on September 16 2015, 09:44 pm

Amazing job, helped a lot :)

guest
You may want to rate the tab now too:
select rating
Please do not post tabs as comments. Select "correction" instead!