Oops, an error
Loading. Please wait.

Sun In Your Eyes Chords

3,438 views 18 this week
1 commentread comment
1 2 3 4 5
please rate
add to favorites
launch autoscroll
font size
0
reset
transpose
0
reset
display chords
guitar tuner
Tab Pro tools
  • play this tab
  • loop segment
  • change instrument
  • show fretboard
  • metronome
×
Best way to learn
"Sun In Your Eyes"
Autoscroll
slow
fast
+/-
esc
set tempo
stop
Contributor
Difficulty
Tuning
novice
D A D G B E
-----------------------------------------------------------------
Sun In Your Eyes - Grizzly Bear
-----------------------------------------------------------------
Tabbed by: mjohnson1915

Tuning: DADGBE (Drop D)

VERSE

e|---------------|-x---------------|
B|-6---6---6---6-|-3---3---3---3---|
G|---------------|-2-----2---2---0-|
D|---------------|-3---------------|
A|---------------|-x---------------|
D|-5-----5-5-7---|-0-----0-0-------|

CHORUS

E|-0-0-0-7-5-8-|
B|-0-5-3-5-3-6-|
G|-5-2-0-7-5-9-|
D|-3-0-2-x-x-x-|
A|-0-0-3-x-x-x-|
D|-0-0-3-x-x-x-|

BRIDGE Part 1 ("It overflows...silver and silent.")

e|---------------|-0---0---0---0---|-0---0---0---0---|
B|-6---6---6---6-|-1---1---1---1---|-1---1---1---1---|
G|---------------|-0---0---0---0---|-2---2---2---2---|
D|---------------|-2---2---2---2---|-3---3---3---3---|
A|---------------|-3---3---3---3---|-3---3---3---3---|
D|-5-----5-5-7---|-0---0---0---0---|-0---0---0---0---|

BRIDGE Part 2 ("Endless abundance overflows.")

e|-x-x-|-5-4-|
B|-x-x-|-5-4-|
G|-4-4-|-5-4-|
D|-5-5-|-5-0-|
A|-5-5-|-3-0-|
E|-5-3-|-3-0-|

BRIDGE Part 3 ("Silver and silent...always grows.")

e|-7-7-7--|-5-5-3-|
B|-9-9-7--|-6-5-3-|
G|-8-9-8--|-5-7-5-|
D|-7-7-11-|-5-9-7-|
A|-7-7-7--|-5-5-3-|
E|-7-7-9--|-7-5-3-|

BRIDGE Part 4

e|-------------------------------------------------x-|-x-x-|
B|-------------------------------------------------x-|-x-x-|
G|-------------------------------------------------x-|-4-4-|
D|-------------------3---------------3-------------0-|-5-5-|
A|-------2-0-----3-------2-0-----3-------2-0-----3-2-|-5-5-|
E|-3---------------5---------------5---------------5-|-5-3-|


| /  slide up
| \  slide down
| h  hammer-on
| p  pull-off
| ~  vibrato
| +  harmonic
| x  Mute note
comments
We did not receive enough feedback on this tab! Please rate:
print report bad tab
1 2 3 4 5
1 comment total.
0 reply
markiiitu wrote on January 23 2016, 08:21 pm

this is better

e|-----------------|
B|--6---6---6---6--|
G|-----------------|
D|-----------------|
A|--8---8---8---8--|
D|--5-----5-5-7----|

I want to post or [tab]
guest
You may want to rate the tab now too:
select rating
Please do not post tabs as comments. Select "correction" instead!