Oops, an error
Loading. Please wait.

Three Rings bass

169 views 36 this week
no commentswrite comment
1 2 3 4 5
x 3
add to favorites
×
Save as Personal and add changes to this tab that will be seen only by you. Learn more ›
×
You can save this tab as Personal to edit and correct it or add notes. All changes will be seen only by you. Learn more »
launch autoscroll
font size
0
reset
guitar tuner
edit
Autoscroll
slow
fast
+/-
esc
set tempo
stop
[Intro]
Silence x4 bars

G| ----------------------------|
D| ----------------------------|  x4
A| ----------------------------|
E| 3----7----0-----------------|

You always make it alright

G| ----------------------------|
D| ----------------------------|
A| 5-----2-----4-----0---------|
E| ----------------------------|

G| ----------------------------|
D| ----------------------------| x5
A| ----------------------------|
E| 3----7----0-----------------|

Why is that the way it is…
G| ----------------------------|
D| ----------------------------|
A| 5-----2-----4-----0---------|
E| ----------------------------|

G| ----------------------------|
D| ----------------------------| X3
A| ----------------------------|
E| 3----7----0-----------------|

The morning always shows all

G| ----------------------------|
D| ----------------------------|
A| 5-----2-----4-----0---------|
E| ----------------------------|

G ----------------------------|
D ----------------------------|  
A ------------5----7----------|
E 3----7----------------------|

G| ----------------------------|
D| ----------------------------|  X2
A| ----------------------------|
E| 3----7----0-----------------|

G| ----------------------------------------------------------|
D| --------12--9------------------12--9----------------------|  X2 
A| 10-----------------10--9----------------------------------|
E| ---------------------------------------------10--9-----5--|

G| -------------------------------------|
D| -------------------------------------|
A| 9----12----\9------------------------|
E| ----------------------9--/12---------|

G| -------------------------------------|
D| -------------------------------------|
A| 9----12--12---\9---------------------|
E| ----------------------10--/14---\9---|

G| -------------------------------------|
D| -------------------------------------|
A| 9----12--12---\9---------------------|
E| ----------------------9--/12---------|

G| -------------------------------------|
D| -------------------------------------|
A| 9----12--12---\9---------------------|
E| ----------------------10--/14---\9---|

I wanna show you my best side
G| -------------------------------------|
D| -------------------------------------|
A| 9----12--12---\9---------------------|
E| ----------------------9--/12---------|

I wanna be the guy who's right
G| -------------------------------------|
D| -------------------------------------|
A| 9----12--12---\9---------------------|
E| ----------------------10--/14---\9---|

I want you to see things clearly
G| -------------------------------------|
D| -------------------------------------|
A| 9----12--12---\9---------------------|
E| ----------------------9--/12---------|

I wanna make it alright
G| -------------------------------------|
D| -------------------------------------|
A| 9----12--12---\9---------------------|
E| ----------------------10--/14---\9---|

Don't you be so easy
G| ----------------------------------------------------------|
D| --------12--9------------------12--9----------------------| 
A| 10-----------------10--9----------------------------------|
E| ---------------------------------------------10--9-----5--|

Don't you know that I can make it better
G| --------------------------------------------------------------|
D| --------12--9------------------12--9----------------------11--| 
A| 10-----------------10--9--------------------------------------|
E| ---------------------------------------------10--9-----5------|

Don't you ever leave me
G| --------------------------------------------------------------|
D| --------12--9------------------12--9----------------------11--|  
A| 10-----------------10--9--------------------------------------|
E| ---------------------------------------------10--9-----5------|

Don't you feel it all come together
G| --------------------------------------------------------------|
D| --------12--9------------------12--9--------------------------| 
A| 10-----------------10--9--------------------------------------|
E| ---------------------------------------------10--9-----5---9--|

[Instrumental]
G| ------------------------------------------|
D| ------------------------------------------|
A| -------------9---12-----------------------|
E| 7---9-10---------------9------10----------|

G| ---------------------------------------------|
D| ---------------------------------------------|
A| -------------9---12--14\---------------------|
E| 7---9-10------------------9------10-----12\--|

G| --------------------------------------------|
D| --------------------------------------------|
A| --------------------5--7--------------------|
E| 3----7-----3---------------3--2--------5----|

G| ------------------------------------------|
D| ------------------------------------------|
A| -------12-------------2/4-----------------|
E| 0--------------0----------2------------5--|


Don't you be so easy 
G| -------------------------------------------|
D| -------------------------------------------|
A| -------------9---12------------------------|
E| 7---9-10---------------9------10------12---|

Don't you know that I can make it better
G| -------------------------------------------------------------|
D| -------------------------------------------------------------|
A| -----------------------------------------------------/16-----|
E| 0------12-------0--------12--10--14--------------------------|

Don't you ever leave me
G| -------------------------------------------------------------|
D| -------------------------------------------------------------|
A| -------------------------------------------------------------|
E| 0------12-------12--------12------14----------------17-------|

Don't you feel it all come together
G| -------------------------------------------------------------|
D| -------------------------------------------------------------|
A| -------------------------------------------------------------|
E| 12------12-------12--------12------14--------17----17--------|

[Outro]
G| ---------------------------------------------|
D| ---------------------------------------------|
A| -------------9---12--------------------------|
E| 7---9-10---------------9------10------14\----|

G| ---------------------------------------------------|
D| ---------------------------------------------------|
A| -----------------------------------------------16--|
E| 0----7-----0-------10/----14---------14---17-------|



************************************

| \  Slide down
| /  Slide up
 

************************************
Suggest correction
Creating personal tab
Creating personal tab
You can edit any tab online and save it as your Personal.

You can edit, replace or remove any tab part or add personal notes – all changes will be seen only by you.

Personal tabs can be accessed anytime from any device, even offline.
Learn more »
Give kudos to tab author, rate the tab!
1 2 3 4 5
comments
print report bad tab
guest
You may want to rate the tab now too:
select rating
Wanna post a correction for this tab? Suggest correction