Oops, an error
Loading. Please wait.

Two Weeks bass

version 2
version 2

Whole song

Interactive

7,344 views 9 this week
no commentswrite comment
1 2 3 4 5
x 4
add to favorites
×
Save as Personal and add changes to this tab that will be seen only by you. Learn more ›
×
You can save this tab as Personal to edit and correct it or add notes. All changes will be seen only by you. Learn more »
launch autoscroll
font size
0
reset
guitar tuner
edit
Autoscroll
slow
fast
+/-
esc
set tempo
stop
Author
Difficulty
TWO WEEKS
By GRIZZLY BEAR

Note: if you're trying to play this along with 
the recording, they play it a bit off-tune.


---VERSE--0:12---------------------------------------------------

 "Aahh-ohh..."
G|------------------|
D|------------------|
A|-8-----7----------| x3
E|-------------8----|

 "A routine..."     "Just like..."     "I told you...Aahh-ohh" 
G|------------------|------------------|----------------------|
D|----x7------------|----10------------|----------------------|
A|-8-----7----------|-8-----7----------|-8--8810\--7---7------|
E|-------------8----|-------------8----|-----------------8~~--|


---CHORUS--0:47--------------------------------------------------

"Would you always..."
G|----------------------------|
D|-------------3--------------|
A|---------3-5------------5---| x4
E|-6~~-3-6-------1~~-1-3---03-|
                        (quiet)

---VERSE--1:12---------------------------------------------------

G|------------------|
D|------------------|
A|-8-----7----------| x3
E|-------------8----|

  "Think of..."      "momentary phase"     "just like..."
G|------------------|---------------------|----------9--------|
D|----x7------------|------10\------------|----x7-------------|
A|-8-----7----------|-8--88----7----------|-8-----7---7-------|
E|-------------8----|----------------8----|--------------8~~--|

  "Every time..."    "quarter half..."      "just like..."
G|------------------|----------------------|--------------9\------|
D|------------------|----------------------|-------10\------------|
A|-8-----7----------|-8--8810\--7---7------|-8---88----7----------|
E|-------------8----|-----------------8----|-----------------8----|

 "...stay--Ahh-ohh..."
G|----------------------|
D|----------------------|
A|-8--8810\--7---7------|
E|-----------------8~~--|


---INTERLUDE--2:12-----------------------------------------------

G|--------------|
D|----REST------|
A|-(piano-only)-|
E|--------------|


---CHORUS--2:24--------------------------------------------------

 "Would you always..."
G|----------------------------|     
D|-------------3--------------|     
A|---------3-5------------5---| x4  
E|-6~~-3-6-------1~~-1-3---03-|     
                        (quiet)

 "Would you..."    "maybe sometimes..."
G|-----------------|-------5---------|
D|---------3--3-2--|---------3--3-5--|
A|-----------------|-----------------|
E|-6\--------------|-6---------------|

 "Would you always..."              (hold out notes longer)
G|---------------------------|     G|---------------------------|
D|-------------3-------------|     D|-------------3-------------|
A|---------3-5---------------| x2  A|---------3-5---------------| x2
E|-6~~-3-6-------1~~-1-3---3-|     E|-6~~-3-6-------1~~-1-3---3-|

 (back to normal)
G|----------------------------|     
D|-------------3--------------|     
A|---------3-5------------5---| x2  
E|-6~~-3-6-------1~~-1-3---03-|     
                        (quiet)

---OUTRO--3:37---------------------------------------------------

G|------------------|     |----------------------|
D|-----7------------|     |----------------------|
A|-8-----7~~~-------| x3  |-8--8810\--7~~~7------|
E|-------------8~~~-|     |-----------------8~~~-|
Suggest correction
Creating personal tab
Creating personal tab
You can edit any tab online and save it as your Personal.

You can edit, replace or remove any tab part or add personal notes – all changes will be seen only by you.

Personal tabs can be accessed anytime from any device, even offline.
Learn more »
comments
print report bad tab
guest
You may want to rate the tab now too:
select rating
Wanna post a correction for this tab? Suggest correction