Oops, an error
Loading. Please wait.

While You Wait For The Others bass

version 1
version 1

Whole song

Interactive

2,602 views 3 this week
no commentswrite comment
1 2 3 4 5
1 last vote to show rating
add to favorites
×
Save as Personal and add changes to this tab that will be seen only by you. Learn more ›
×
You can save this tab as Personal to edit and correct it or add notes. All changes will be seen only by you. Learn more »
launch autoscroll
font size
0
reset
guitar tuner
edit
Autoscroll
slow
fast
+/-
esc
set tempo
stop
Author
Difficulty
WHILE YOU WAIT FOR THE OTHERS
By GRIZZLY BEAR

Note: the verses vary a lot so you can do what you 
want there, but all the other parts don't change.

---VERSE--0:06---------------------------------------------------

 "While you..."    "to make it all..."
G|-------------------------------------------------|
D|------9----------------6-7~--7-77-------7-7~---7-|
A|-7~-----5~---5-x5--9~------------5---5-5---------|
E|-------------------------------------------------|

 "All your..."        "are weighing on my..."
G|----------------------------------------------------|
D|--------------------------6-7~--7-77-------7-7~---9-|
A|-7~---7----5~--x5-5-7-9~------------5---5-----------|
E|-----7--70------------------------------------------|

 "You could beg..."     "as long as you'd like."
G|------9----------------------------------------------|
D|-----9--------------------6-7~---77---------7-7~---7-|
A|-7~-----7--5~---x5-5-5-9~------------5---5-5---------|
E|-----------------------------------------------------|

 "Or just wait out..."
G|--------------------|
D|--------------------|
A|-7~---7---5~--x5-5--|
E|-----7--7-----------|


---PRECHORUS--0:48----------------------------------------------

 "You'll only bleed me dry..."       "So I'll ask you kindly..."
G|----------------------------|     |--------------------------|
D|------------------1-1--1-1--|     |-----(or-2-2-2-2-2-2-2-2)-|
A|----7------7----------------| x2  |--------------------------|
E|-5----5-3----5-2-----2----2-|     |-0~--0~--0-0-0-0-0-0-0-0--|

---CHORUS--1:06-------------------------------------------------

       "Aaahh-oohhh..."
G|------7--------------------4-6-9--|     |--rest--|
D|---------7-7---7-4--x4-6-7--------|     |-while--|
A|-5-5----5-------------------------| x4  |-guitar-|
E|----------------------------------|     |-plays--|


---VERSE--1:36--------------------------------------------------

 "While you..."      "that I'll pretend..."
G|-------------------------------------------------|
D|-----x9----------7-----6-7~---77--------7-7~---7-|
A|-7~-----5~---5-5---9~------------5---5-5---------|
E|-------------------------------------------------|

 "Keepin' up..."       "still lock you by..."
G|-----------------------------------------------------|
D|---------------------7-----6-7~---77--------7-7~---9-|
A|-7~---7-----5~--x5-5---9~------------5---5-----------|
E|-----7--70-------------------------------------------|

 "You could hope..."    "as long as you'd like."
G|-----9-----------------------------------------------|
D|----9--9------------------6-7~-7--77--------7-7~---7-|
A|-7~-----7--5~---x5-5-5-9~------------5---5-5---------|
E|-----------------------------------------------------|

 "Or just wait out..."
G|--------------------|
D|--------------------|
A|-7~---7---5~--x5-5--|
E|-----7-70-----------|


---PRECHORUS--1:17----------------------------------------------

 "You always ask me why..."          "So I'll ask you kindly..."
G|----------------------------|     |--------------------------|
D|------------------1-1--1-1--|     |-----(or-2-2-2-2-2-2-2-2)-|
A|----7------7----------------| x2  |--------------------------|
E|-5----5-3----5-2-----2----2-|     |-0~--0~--0-0-0-0-0-0-0-0--|


---CHORUS--2:35-on----------------------------------------------

       "Aaahh-oohhh..."
G|------7--------------------4-6-9--|     |---rest-for----|
D|---------7-7---7-4--x4-6-7--------|     |-a-little-keys-|
A|-5-5----5-------------------------| x4  |--guitar-and---|
E|----------------------------------|     |---vocals------|

 "Oh-aah-oh-aah..."
G|-------------------4-6-9--|
D|------7~---4~--6-7--------|
A|-5~--5--------------------| x2 
E|--------------------------|

G|------7--------------------4-6-9--|
D|---------7-7---7-4--x4-6-7--------| -repeat till
A|-5-5----5-------------------------|  it cuts out
E|----------------------------------|

            
            
Suggest correction
Creating personal tab
Creating personal tab
You can edit any tab online and save it as your Personal.

You can edit, replace or remove any tab part or add personal notes – all changes will be seen only by you.

Personal tabs can be accessed anytime from any device, even offline.
Learn more »
Give kudos to tab author, rate the tab!
1 2 3 4 5
comments
print report bad tab
guest
You may want to rate the tab now too:
select rating
Wanna post a correction for this tab? Suggest correction