Oops, an error
Loading. Please wait.

Graveyard Girlfriend Chords

453 views 1 this week
no commentswrite comment
1 2 3 4 5
please rate
add to favorites
launch autoscroll
font size
0
reset
transpose
0
reset
display chords
guitar tuner
Autoscroll
slow
fast
+/-
esc
set tempo
stop
Help us to improve Ultimate-Guitar.com Take our survey!
×
Author
Difficulty
novice
-------------------------------------------------------------------------------
                             Graveyard girlfriend - Groovie Ghoulies
-------------------------------------------------------------------------------
Tabbed by:morciu
Email:pralea_man58@yahoo.co.uk

Tuning:standard

e|------------------------------------------------------------|
B|------------------------------------------------------------|
G|------------------------------------------------------------|
D|------------------------------------------------------------|
A|---------------------------------7------7------7------7-----|
E|-3-5-5---3-5-5---3-5-5---3-5-5-----5-5----5-5----5-5----5-5-|

A
Down in the graveyard on a Saturday night
A
when the chains on the gates are locked up tight
D
You're my graveyard girlfriend
A
You're my graveyard girlfriend, alright

e|---------------------------------------------------------------------------|
B|---------------------------------------------------------------------------|
G|---------------------------------------------------------------------------|
D|--3-3-3-3-3-3-3---5-5-5-5-5-5-5---7-7-7-7-7-7-7----------------------------|
A|--3-3-3-3-3-3-3---5-5-5-5-5-5-5---7-7-7-7-7-7-7----------------------------|
E|--1-1-1-1-1-1-1---3-3-3-3-3-3-3---5-5-5-5-5-5-5----------------------------|

A
A midnight picnic on the blanket for two
A
There's a full moon shinin' on me and you
D
You're my graveyard girlfriend
A
You're my graveyard girlfriend, alright

e|---------------------------------------------------------------------------|
B|---------------------------------------------------------------------------|
G|---------------------------------------------------------------------------|
D|--3-3-3-3-3-3-3---5-5-5-5-5-5-5---7-7-7-7-7-7-7----------------------------|
A|--3-3-3-3-3-3-3---5-5-5-5-5-5-5---7-7-7-7-7-7-7----------------------------|
E|--1-1-1-1-1-1-1---3-3-3-3-3-3-3---5-5-5-5-5-5-5----------------------------|

e|---------------------------------------------------------------------------|
B|---------------------------------------------------------------------------|
G|---------------------------------------------------------------------------|
D|---------------------------------------------------------------------------|
A|---------------------------------7------7------7------7--------------------|
E|-3-5-5---3-5-5---3-5-5---3-5-5-----5-5----5-5----5-5----5-5----------------|

e|---------------------------------------------------------------------------|
B|---------------------------------------------------------------------------|
G|--7-7-7-7-7-7-7------------------------------------------------------------|
D|--7-7-7-7-7-7-7----7-7-7-7-7-7-7-------------------------------------------|
A|--5-5-5-5-5-5-5----7-7-7-7-7-7-7-------------------------------------------|
E|-------------------5-5-5-5-5-5-5-------------------------------------------|

e|---------------------------------------------------------------------------|
B|---------------------------------------------------------------------------|
G|---------------------------------------------------------------------------|
D|--3-3-3-3-3-3-3---5-5-5-5-5-5-5---7-7-7-7-7-7-7----------------------------|
A|--3-3-3-3-3-3-3---5-5-5-5-5-5-5---7-7-7-7-7-7-7----------------------------|
E|--1-1-1-1-1-1-1---3-3-3-3-3-3-3---5-5-5-5-5-5-5----------------------------|

A
The whole damn world is going to hell
A
but when I'm with you I could never tell
D
You're my graveyard girlfriend
A
You're my graveyard girlfriend, alright

e|---------------------------------------------------------------------------|
B|---------------------------------------------------------------------------|
G|---------------------------------------------------------------------------|
D|--3-3-3-3-3-3-3---5-5-5-5-5-5-5---7-7-7-7-7-7-7----------------------------|
A|--3-3-3-3-3-3-3---5-5-5-5-5-5-5---7-7-7-7-7-7-7----------------------------|
E|--1-1-1-1-1-1-1---3-3-3-3-3-3-3---5-5-5-5-5-5-5----------------------------|

A
The dead are all at rest in peace
A
with just the bare necessities
D
You're my graveyard girlfriend
A
You're my graveyard girlfriend, alright

e|---------------------------------------------------------------------------|
B|---------------------------------------------------------------------------|
G|---------------------------------------------------------------------------|
D|--3-3-3-3-3-3-3---5-5-5-5-5-5-5---7-7-7-7-7-7-7----------------------------|
A|--3-3-3-3-3-3-3---5-5-5-5-5-5-5---7-7-7-7-7-7-7----------------------------|
E|--1-1-1-1-1-1-1---3-3-3-3-3-3-3---5-5-5-5-5-5-5----------------------------|

e|---------------------------------------------------------------------------|
B|---------------------------------------------------------------------------|
G|---------------------------------------------------------------------------|
D|---------------------------------------------------------------------------|
A|---------------------------------7------7------7------7--------------------|
E|-3-5-5---3-5-5---3-5-5---3-5-5-----5-5----5-5----5-5----5-5----------------|

e|---------------------------------------------------------------------------|
B|---------------------------------------------------------------------------|
G|--7-7-7-7-7-7-7------------------------------------------------------------|
D|--7-7-7-7-7-7-7----7-7-7-7-7-7-7-------------------------------------------|
A|--5-5-5-5-5-5-5----7-7-7-7-7-7-7-------------------------------------------|
E|-------------------5-5-5-5-5-5-5-------------------------------------------|

e|---------------------------------------------------------------------------|
B|---------------------------------------------------------------------------|
G|---------------------------------------------------------------------------|
D|--3-3-3-3-3-3-3---5-5-5-5-5-5-5---7-7-7-7-7-7-7----------------------------|
A|--3-3-3-3-3-3-3---5-5-5-5-5-5-5---7-7-7-7-7-7-7----------------------------|
E|--1-1-1-1-1-1-1---3-3-3-3-3-3-3---5-5-5-5-5-5-5----------------------------|

A
I don't care what the neighbors say
A
I'll be your graveyard boyfriend 'til my dying day
D
You're my graveyard girlfriend
A
You're my graveyard girlfriend, alright

e|---------------------------------------------------------------------------|
B|---------------------------------------------------------------------------|
G|---------------------------------------------------------------------------|
D|--3-3-3-3-3-3-3---5-5-5-5-5-5-5---7-7-7-7-7-7-7----------------------------|
A|--3-3-3-3-3-3-3---5-5-5-5-5-5-5---7-7-7-7-7-7-7----------------------------|
E|--1-1-1-1-1-1-1---3-3-3-3-3-3-3---5-5-5-5-5-5-5----------------------------|

A
One day I'll lay next to you
A
in a beautiful coffin built for two
D
You're my graveyard girlfriend
A
You're my graveyard girlfriend, alright

e|---------------------------------------------------------------------------|
B|---------------------------------------------------------------------------|
G|---------------------------------------------------------------------------|
D|--3-3-3-3-3-3-3---5-5-5-5-5-5-5---7-7-7-7-7-7-7----------------------------|x4
A|--3-3-3-3-3-3-3---5-5-5-5-5-5-5---7-7-7-7-7-7-7----------------------------|
E|--1-1-1-1-1-1-1---3-3-3-3-3-3-3---5-5-5-5-5-5-5----------------------------|


| /  slide up
| \  slide down
| h  hammer-on
| p  pull-off
| ~  vibrato
| +  harmonic
| x  Mute note
==================================================================
Suggest correction
Give kudos to tab author, rate the tab!
1 2 3 4 5
comments
print report bad tab
guest
You may want to rate the tab now too:
select rating
Wanna post a correction for this tab? Suggest correction