Oops, an error
Loading. Please wait.

Stay tab

by Grosh
129 views 1 this week
no commentswrite comment
1 2 3 4 5
3 more votes to show rating
add to favorites
×
Save as Personal and add changes to this tab that will be seen only by you. Learn more ›
×
You can save this tab as Personal to edit and correct it or add notes. All changes will be seen only by you. Learn more »
launch autoscroll
font size
0
reset
how to read this tab
guitar tuner
edit
Autoscroll
slow
fast
+/-
esc
set tempo
stop
Author
Title     : Stay
Artist    : Grosh
Album     : Demo
Capo      : none
Setting   : E-A-D-G-B-E
Tabbed by : ZF
-------------------------------------------------

	

This is a tab of a demo song of the Dutch band Grosh. Please visit Grosh.nl, hope you enjoy it.

	Grosh - Stay

Chords:

	    C#m		A	E	B	g#m
	E|---x----------x-------0-------x--------4-----|	
	A|---4----------0-------2-------2--------6-----|
	D|---6----------2-------2-------4--------6-----|	
	G|---6----------2-------1-------4--------4-----|	
	B|---5----------2-------0-------4--------4-----|
	e|---4----------0-------0-------2--------4-----|


	Tabs:	



	E|-------|
	A|-4p3-0-|
	D|-------|	
	G|-------|	Intro
	B|-------|
	e|-------|

	Chords intro: c#m then A, E.

Verse:

	~palm muted riff 1~
	
	C#m      B         A          E   Riff 1 
	I wonder what’s so cool about you
        C#m      B      A        E   Riff 1
	What it is that makes me care 
	A(riff 2)      B      C#m             B    
	Why do I keep running back to you
	A	    B       E
	When you’re not even there

		Riff 1:
	
	   C#m		B		A		E
	E|-9-9-7-9---9----7-7-5-7---7----5-5-3-5---5----7-7-7---------|
	A|---------7--------------7--------------7------------9--11~--|
	D|------------------------------------------------------------|
	G|------------------------------------------------------------|
	B|------------------------------------------------------------|
	e|------------------------------------------------------------|

		Riff 2	:	
	E|------------------------------------------------------|
	A|------------------------------------------------------|
	D|-11-11/13-13/14-14-14-13h14p13/14-13/11-11/13-13/14---|
	G|------------------------------------------------------|
	B|------------------------------------------------------|
	e|------------------------------------------------------|


	

Chorus: 

	Chords: E, B, C#m, B, A	Riff 4

	E     B		C#m
	Where-ever you go
	B	      A(Riff 4) B
	Whatever you say
	Whatever you do
	I want you to stay

	
	
	Riff 4:	

	E|4-4---x---|
	A|6-6---2---|
	D|6-6---4---|	
	G|4-4---4---|	
	B|4-4---4---|
	e|4-4---2---|


Intro

Verse

Chorus

intro

Solo, same chords as intro...

the riff 2 and chorus

then:

	E|--9-9-7-9---9------------------|
	A|----------7----11-11-9-11---11-|
	D|--------------------------9----|	
	G|-------------------------------|	outro
	B|-------------------------------|
	e|-------------------------------|

Ending:


	E|x----x----x----x----x----x----x-----------|
	A|4----2----4----7----4----2----4~----------|
	D|6----4----6----9----6----4----6~----------|	
	G|6----4----6----9----6----4----6~----------|	
	B|5----4----5----9----5----4----5~----------|
	e|4----2----4----7----4----2----4~----------|


Lyrics:

I wonder what’s so cool about you
What it is that makes me care
Why do I keep running back to you 
When you’re not even there

Where-ever you go
Whatever you say
Whatever you do
I want you to stay

When you’re down, when you need me
When you’re out there on your own
I’ll be there when you call me in the middle of the night
I’ll be there by your side

Where-ever you go
Whatever you say
Whatever you do
I want you to stay

Where-ever you go
Whatever you say
Whatever you do
I want you to stay

Where-ever you go
I want you to see
Whatever you do
Please stay here with me


		

greetings, ZF

comments or remarks?
Blakmath07@live.nl
Suggest correction
Creating personal tab
Creating personal tab
You can edit any tab online and save it as your Personal.

You can edit, replace or remove any tab part or add personal notes – all changes will be seen only by you.

Personal tabs can be accessed anytime from any device, even offline.
Learn more »
Give kudos to tab author, rate the tab!
1 2 3 4 5
comments
print report bad tab
guest
You may want to rate the tab now too:
select rating
Wanna post a correction for this tab? Suggest correction