Oops, an error
Loading. Please wait.

Breakdown Chords

1,508 views 1 this week
no commentswrite comment
1 2 3 4 5
accurate
x 3
add to favorites
launch autoscroll
font size
0
reset
transpose
0
reset
display chords
guitar tuner
Tab Pro tools
  • play this tab
  • loop segment
  • change instrument
  • show fretboard
  • metronome
×
Best way to learn
"Breakdown"
Autoscroll
slow
fast
+/-
esc
set tempo
stop
Contributor
I learned to play this song by watching this video of Group 1 Crew singing it with Jamie Grace
http://youtu.be/MkSnEXM4ZHI
Have fun       God bless

Group 1 Crew ~ Breakdown

Standard Tuning

intro
E---------------------------------------------------------------|
B---------------------------------------------------------------|
G---------------------------------------------------------------|
D---------------------------------------------------------------|
A---------88--66------------------------------------------------|            2x
E---66-------------99-88-99-88-99-------------------------------|

Verse 1
E---------------------------------------------------------------|
B---------------------------------------------------------------|
G---------------------------------------------------------------|
D---------------------------------------------------------------|
A---------88--66------------------------------------------------|            4x
E---66-------------99-88-99-88-99-------------------------------|

They say don't try to fix what i-isn't broke
But I see that you need a fix in your soul
We-we don't like to play politics it's a joke
So we pu-pushin envelopes, envelopes

pre-chorus
Bb                 Ab              F#                   
F                     F Bb
Ain't nobody stoppin the music until we fill up the floor
Bb                  Ab             F#                  
F              Bb
It's the type-a music he created so you need to let go, go, go-go-go

Chorus
Bb                     F#    Ab F
See the flashin lights
Bb                   F#     Ab F
Clock is losin time
Bb                    F#                     Ab   F
Gotta shake it off this feeling's takin off
          F#                   Ab
Cause everybody's waiting for the breakdown

Verse 2

E---------------------------------------------------------------|
B---------------------------------------------------------------|
G---------------------------------------------------------------|
D---------------------------------------------------------------|
A---------88--66------------------------------------------------|            6x
E---66-------------99-88-99-88-99-------------------------------|
You can you can make it make it happen while we rappin rappin
See the flashin' lights and camera cameras so let's have some action

You can find me in a black SC goin over 60 with the windows down
Anybody thinkin oooh who's he wit the dope dope beat tell me what's that
sound
G1C wit the chop chop beat goin' mad crazy you can see it see it
We so so sick with a boom boom hit gotta do do it cuz we need it need it

pre-chorus
Bb                 Ab              F#                   
F                     F Bb
Ain't nobody stoppin the music until we fill up the floor
Bb               Ab        F#            F          Bb
It's the type-a music he created so you need to let go, go, go-go-go

Chorus
Bb                     F#    Ab F
See the flashin lights
Bb                   F#     Ab F
Clock is losin time
Bb                    F#                     Ab   F
Gotta shake it off this feeling's takin off                     2x
          F#                   Ab
Cause everybody's waiting for the breakdown

Bridge
It's impossible to put a stop on this trio
And if you haven't heard make sure that you let someone know
Get the sunblock cuz we hot
A unique breed is unlocked
We on the block cuz we rock
Hard like the school of knocks

E---------------------------------------------------------------|
B---------------------------------------------------------------|
G---------------------------------------------------------------|
D---------------------------------------------------------------|
A---------88--66------------------------------------------------|            4x
E---66-------------99-88-99-88-99-------------------------------|

This ain't ya typical, typical, group that you heard it's a miracle,
Little bit a funk wit a whole lotta soul that'll bump da bump on ya radio,
simmer simmer down all you ha-ter-ters
Didn't lose our sound we just got better
beat so cold did my verse like brrr
still spent life so forget what you heard


Chorus
Bb                     F#    Ab F
See the flashin lights
Bb                   F#     Ab F
Clock is losin time
Bb                    F#                     Ab   F
Gotta shake it off this feeling's takin off                     2x
          F#                   Ab
Cause everybody's waiting for the breakdown
comments
We did not receive enough feedback on this tab! Please rate:
print report bad tab
1 2 3 4 5
I want to post or [tab]
guest
You may want to rate the tab now too:
select rating
Please do not post tabs as comments. Select "correction" instead!