Oops, an error
Loading. Please wait.

Too Many Guys Bass Tab

version 2
version 2

Whole song

Interactive

354 views 1 this week
no commentswrite comment
1 2 3 4 5
3 more votes to show rating
add to favorites
launch autoscroll
font size
0
reset
guitar tuner
Autoscroll
slow
fast
+/-
esc
set tempo
stop
Help us to improve Ultimate-Guitar.com Take our survey!
×
Author
Difficulty
novice
Group X - Too Many Guys

i couldnt find a tab with the different fill he plays in the main riff
so heres the way i play it, i think its pretty damn close anyway


main riff
---2-0-2p0------------2-0-2p0-------------2h4--------|
-----------0-2----------------0-2--------------------|
-0------------------0--------------------------------|
---------------3333--------------0-0-0033------------|

chorus
-----------------------------2-2---------------------|
-3-3---0-2-2-----3-3---0-2-2-----2--2--2-------------|
-----3-------0-0-----3-------------------------------|
-----------------------------------------------------|

main riff v2
---2-0-2p0------------2-0-2p0-------------2h4--------|
-----------0-2----------------0-2--------------------|
-0-------------332--0--------------------------------|
------------------3--------------0-0-0033------------|


sometimes the 332--
              ---3-

is:           3-2--
              ----3

not hard to work out anyway just play along to the song..
Suggest correction
Give kudos to tab author, rate the tab!
1 2 3 4 5
comments
print report bad tab
guest
You may want to rate the tab now too:
select rating
Wanna post a correction for this tab? Suggest correction