Oops, an error
Loading. Please wait.

Trickshoth Bass Tab

74 views 1 this week
no commentswrite comment
1 2 3 4 5
please rate
add to favorites
launch autoscroll
font size
0
reset
guitar tuner
Autoscroll
slow
fast
+/-
esc
set tempo
stop
Help us to improve Ultimate-Guitar.com Take our survey!
×
Author
URL to official Group X page : http://www.groupxarab.com/
Country : Saudi Arabia (I think)
Albums: 40 oz. Slushie, Group X


Song: Trickshoth
Band: Group X
Album: Stepping on the Crowtch owf your Americain Presidaint

 Verse
|--------------------------|---------------------|
|-12--12------12-----10----|-----------10--10----|
|-10--10------10----- 8----|---8--8--8---------8-|
|--------------------------|---------------------|

|- 8-- 8------ 8--10--7----|---7--7--7-----7-----|
|-10--10------10-/12--9----|------------9------9-|
|--------------------------|---------------------|
|--------------------------|---------------------|

|--------------------------|---------------------|
|-12--12------12-----10----|--10-10-10--------12-|
|-10--10------10----- 8----|------------8--10----|
|--------------------------|---------------------|

|- 8-- 8------ 8--10--7----|------------7--7-----|
|-10--10------10-/12--9----|---9--9--9-----------|
|--------------------------|------------------10-|
|--------------------------|---------------------|

|--------------------------|---------------------|
|-12--12----------12-10----|---------------------|
|-10--10----10-10---- 8----|------------8------8-|
|--------------------------|--10-----------10----|

|- 8-- 8------ 8--10--7----|---------7--7--7-----|
|-10--10------10-/12--9----|---------------------|
|--------------------------|------------------10-|
|--------------------------|---------------------|

|--------------------------|---------------------|
|-12--12------12-----10----|--10-10-10-10--10----|
|-10--10------10----- 8----|---------------------|
|--------------------------|---------------------|

|- 8-- 8------ 8--10--7----|------------7------7-|
|-10--10------10-/12--9----|------9--9-----9-----|
|--------------------------|---------------------|
|--------------------------|---------------------|

 Chorus (x2)
|-10-10----10-10----10-10----10-10----|-----------------------------|
|-------12-------12-------12-------12-|-8-8----8-8----8-8----8-8----|
|-------------------------------------|-----10-----10-----10-----10-|
|-------------------------------------|-----------------------------|

|-10-10----10-10----10-10----10-10----|-----------------------------|
|-------12-------12-------12-------12-|-----------------------------|
|-------------------------------------|-----------------------------|
|-------------------------------------|-0---------------------------|

 Verse 2
|--------------------------|---------------------|
|-12--12------12-----10----|-----------10--10----|
|-10--10------10----- 8----|---8--8--8-----------|
|--------------------------|------------------10-|

|- 8-- 8------ 8------7----|------------7--7-----|
|-10--10------10------9----|---9--9--9-----------|
|--------------------------|------------------10-|
|--------------------------|---------------------|

|--------------------------|---------------------|
|-12--12----------12-10----|---------------------|
|-10--10----10-10---- 8----|----------8-----8----|
|--------------------------|--10-10-----10----10-|

|- 8-- 8------ 8--10--7----|---------7-----7-----|
|-10--10------10-/12--9----|---------9-----9-----|
|--------------------------|---------------------|
|--------------------------|---------------------|

 Chorus

 Interlude
|--------------------------|--------------------------|
|--------------------------|-0-------0-2-3----3---3---|
|-0--------0--3-------3--2-|--------------------5---5-|
|--------------------------|--------------------------|

|-0------0--2h3----3---3---|-5-------5-7-8------------|
|--------------------5---5-|--------------------------|
|--------------------------|--------------------------|
|--------------------------|--------------------------|

 Chorus (x2)

 Outro
|----|
|----|
|----|
|-0--|
Suggest correction
Give kudos to tab author, rate the tab!
1 2 3 4 5
comments
print report bad tab
guest
You may want to rate the tab now too:
select rating
Wanna post a correction for this tab? Suggest correction