Oops, an error
Loading. Please wait.

Betty's A Bombshell Chords

675 views 6 this week
no commentswrite comment
1 2 3 4 5
x 5
add to favorites
launch autoscroll
font size
0
reset
transpose
0
reset
display chords
guitar tuner
×
Best way to learn
"Betty's A Bombshell"
Autoscroll
slow
fast
+/-
esc
set tempo
stop
Author
Tuning
  follow
D# G# C# F# A# D#
-------------------------------------------------------------------------------------------------------------
                                    Betty's A Bombshell-Grouplove
-------------------------------------------------------------------------------------------------------------
Album: Never Trust A Happy Song
Tuning: Half-Step Down (Eb Ab Db Gb Bb Eb)

Tabbed by: WARNINGnimrod12



INTRO FILL

      Eb|----------0----0--------0----0--------0----0---0---0---0---0---|
      Bb|---2h3-3-----3---2h3-3-----3---2h3-3-----3---7---7---5---5-----|
      Gb|---x------------(4)------------4---4---------------------------| <-- these notes played
      Db|---0---0-------------------------------------------------------| <-- very lightly
      Ab|---------------------------------------------------------------|
      Eb|---------------------------------------------------------------|


  *This fill is played throughout the entire song over these chords:


VERSE/PRE-CHORUS:  Db  Ab  Gb


          CHORUS:  Db  A#m  Gb  Gb

                   Db  A#m  Gb  Ab

                   Db~


        CHORUS 2:  Db  A#m  Gb  Gb
 
                   Db  A#m  Gb  Ab

                   Db  A#m  Gb
 
                   Db  A#m  Gb  Ab Ab

                   Db~


That's basically all.


ORDER:

INTRO FILL x2
VERSE/PRE-CHORUS x4
CHORUS 
VERSE 2/PRE-CHORUS 2(same as first) x5
CHORUS 2
OUTRO x5 (same as INTRO/VERSE, end on Db)
 
Suggest correction
comments
print report bad tab
guest
You may want to rate the tab now too:
select rating
Wanna post a correction for this tab? Suggest correction