Oops, an error
Loading. Please wait.

Chloe Bass Tab

1 view 1 this week
no commentswrite comment
1 2 3 4 5
3 more votes to show rating
add to favorites
launch autoscroll
font size
0
reset
guitar tuner
Autoscroll
slow
fast
+/-
esc
set tempo
stop
Help us to improve Ultimate-Guitar.com Take our survey!
×
Author
Difficulty
Tuning
novice
D# G# C# F# A# D#
About this tab version
First bass tab of this song by me in correct tuning. Was this info helpful? Yes No
===========================================================================================
                                     Chloe - Grouplove
===========================================================================================

[Intro/Main Riff] x2
----------------------------------------------|
----------------------------------------------|
----------------------------------------------|
----------------------------------------------|
----------------------------------------------|
--3-3-3-3-3-3-0-0-----------------------------|




[Verse's} x2
----------------------------------------------|
----------------------------------------------|
----------------------------------------------|
----------------------------------------------|
----------------------------------------------|
--3-3-3-3-3-3-3-3-0-0-0-0-0-0-0-0-------------|




[Pre-Chorus]
----------------------------------------------|
----------------------------------------------|
----------------------------------------------|
----------------------------------------------|
--0-0-0-0-0-0-0-0-5~~~~~----------------------|
----------------------------------------------|




Play main riff x4
Play verse x2
Play Pre Chorus (More Db notes)




[Chorus]
--------------------------------------------------------------------------------------|
--------------------------------------------------------------------------------------|
--------------------------------------------------------------------------------------|
--------------------------------------------------------------------------------------|
-----3~~~------------3~~~------------3~~~---------------0~~~---0~~~----5~~~-----------|
-3~~~----3~~~3~~~3~~~----0~~~~~~~3~~~----3~~~3-3-3-2-0~~~---0~~~---3~~~----3~~~~~~~---|




Play Main Riff x2
Rest During this verse
Play Pre-chorus
Play Chorus
Play Main Riff x2




[Bridge]
---------|----------------------------------------------------------------------------|
---------|----------------------------------------------------------------------------|
---------|----------------------------------------------------------------------------|
---------|----------------------------------------------------------------------------|
---------|---------------------------------------------------stay on that Ab even on--|
-3-4-5-6-|-7~~~~~~0~~~~~~7~~~8~~~0~~~~~~7~~~~~~0~~~~~~5~~~~~~~~~the Db chord~~~~------|


Chorus with no Bass....

Then.. Last CHorus
------------------------------------------------------------------------------------------------|
------------------------------------------------------------------------------------------------|
------------------------------------------------------------------------------------------------|
------------------------------------------------------------------------------------------------|
------3~~~---------------0~~~---0~~~----5~~~-------------------0~~~---0~~~----5~~~--------------|
--3~~~----3~~~3-3-3-2-0~~~---0~~~---3~~~----3-3-3-3-3-3-3-3-0~~~---0~~~---3~~~----3-3-3-3-3-3-3-|

Thanks



Suggest correction
Give kudos to tab author, rate the tab!
1 2 3 4 5
comments
print report bad tab
guest
You may want to rate the tab now too:
select rating
Wanna post a correction for this tab? Suggest correction