Oops, an error
Loading. Please wait.

Dont Stop Making It Happen Tab

31 views 6 this week
no commentswrite comment
1 2 3 4 5
3 more votes to show rating
add to favorites
launch autoscroll
font size
0
reset
how to read this tab
guitar tuner
Autoscroll
slow
fast
+/-
esc
set tempo
stop
Help us to improve Ultimate-Guitar.com Take our survey!
×
Author
Difficulty
intermediate
About this tab version
Thought id do the tab for this great song as the solo is especially cool to learn :). Was this info helpful? Yes No
========================================================================================
                       Don't Stop Making It Happen - Grouplove
========================================================================================


[Intro]
|-----------------------------------------------------------------------------|
|-----------------------------------------------------------------------------|
|-----------------------------------------------------------------------------|
|--/11--7---7---11-12--11-7--2~~-----2-2-2-4-7/-------------------------------|
|---x---x---x---x--x---x--x--x-------x-x-x-x-x--------------------------------|
|--/9---5---5---9--10--9--5--0~~-----0-0-0-2-5/-------------------------------|



[Verses]                                       YOU DONT KNOW
|--------------------------------------------|--0-----------------------------|
|-2-2---2-2---2-2----------------------------|--0-----------------------------|
|-2-2---2-2---2-2---1-1---1-1----------------|--1-----------------------------|
|-2-2---2-2---2-2---2-2---2-2----------------|--2-----------------------------|
|-0-0---0-0---0-0---2-2---2-2---------2------|--2-----------------------------|
|-------------------0-0---0-0---0-2-4--------|--0-----------------------------|




[Chorus] Gtr1
|-----------------------------------------------------------------------------|
|-2-2-2-2---------------------------------------------------------------------|
|-2-2-2-2-1-1-1-1-------------2-2-2-2-4-4-4-4---------------------------------|
|-2-2-2-2-2-2-2-2-------------4-4-4-4-6-6-6-6---------------------------------|
|-0-0-0-0-2-2-2-2----x3-------4-4-4-4-7-7-7-7---------------------------------|
|---------0-0-0-0-------------2-2-2-2-4-4-4-4---------------------------------|
Gtr2
|-----------------------------------------------------------------------------|
|-----------------------------------------------------------------------------|
|-----------------------------------------------------------------------------|
|--/11--7---7---11-12--11-7--2~~-----2-2-2-4-7/-------------------------------|
|---x---x---x---x--x---x--x--x-------x-x-x-x-x--------------------------------|
|--/9---5---5---9--10--9--5--0~~-----0-0-0-2-5/-------------------------------|



VERSE
CHORUS



[Bridge]
|-----------------------------------------------------------------------------|
|-2--2---2-2------------------------------------------------------------------|
|-2--2---2-2-1-1-1-1---------feedback at the end of 4th time------------------|
|-2--2---2-2-2-2-2-2----------------------------------------------------------|
|-0--0---0-0-2-2-2-2----------------------------------------------------------|
|------------0-0-0-0----------------------------------------------------------|




[Solo] x2
|----------12~----------------------------------------------------------------|
|--------------14-15-14-12-14----12-------------15-15-15-15-14-12-12----------|
|-13h14-14--------------------14----13-14-------------------------------------|
|-----------------------------------------14~~~-------------------------------|
|-----------------------------------------------------------------------------|
|-----------------------------------------------------------------------------|

|----------12~-----------------------------------0////------------------------|
|--------------14-15-14-12-14----12--------------0////------------------------|
|-13h14-14--------------------14----13-14--------1////------------------------|
|-----------------------------------------14~~~--2///-------------------------|
|-----------------------------------------------------------------------------|
|-----------------------------------------------------------------------------|


Double chorus with solo in the middle of it  and youre done :)

Suggest correction
Give kudos to tab author, rate the tab!
1 2 3 4 5
comments
print report bad tab
guest
You may want to rate the tab now too:
select rating
Wanna post a correction for this tab? Suggest correction