Oops, an error
Loading. Please wait.

Raspberry Bass Tab

10 views 3 this week
no commentswrite comment
1 2 3 4 5
3 more votes to show rating
add to favorites
launch autoscroll
font size
0
reset
guitar tuner
Autoscroll
slow
fast
+/-
esc
set tempo
stop
Help us to improve Ultimate-Guitar.com Take our survey!
×
Author
Difficulty
Tuning
novice
D# G# C# F# A# D#
About this tab version
First bass tab of this song :))) enjoy. Was this info helpful? Yes No
=====================================================================================
                               Raspberry - Grouplove
=====================================================================================




{Intro/Verse]
-------------------------------------------------------------------------|
-------------------------------------------------------------------------|
-------------------------------------------------------------------------|
-------------------------------------------------------------------------|
-------------------------------------------------------------------------|
-12-12-12-12\9-9-9-9\4-4-4-4-4-4-4-4/12-12-12-12\9-9-9-9\5-5-5-5-5-5-5-5-|

-------------------------------------------------------------------------|
-------------------------------------------------------------------------|
-------------------------------------------------------------------------|
-------------------------------------------------------------------------|
---------7-7-7-7---------7-7-7-7---------7-7-7-7-------------------------|
-4-4-4-4---------4-4-4-4---------4-4-4-4---------5-5-5-5-5-5-5-5-4~~~2~~~|




[Chorus]                       x4 [Post-Chorus]                        x2
---------------------------------|---------------------------------------|
---------------------------------|---------------------------------------|
---------------------------------|---------------------------------------|
---------------------------------|---------------------------------------|
-------------------------4-4-2-2-|-----4-6-6-7-6-------------------------|
-0-0-0-0-4-4-4-4-5-5-5-5---------|-4-7-----------7-4-4-4-7/9~\7~/9~\7~---|




{Verse 2] Do the "12 9 4" at the start twice
-------------------------------------------------------------------------|
-------------------------------------------------------------------------|
-------------------------------------------------------------------------|
-------------------------------------------------------------------------|
-------------------------------------------------------------------------|
-12-12-12-12\9-9-9-9\4-4-4-4-4-4-4-4/12-12-12-12\9-9-9-9\5-5-5-5-5-5-5-5-|

-------------------------------------------------------------------------|
-------------------------------------------------------------------------|
-------------------------------------------------------------------------|
-------------------------------------------------------------------------|
---------7-7-7-7---------7-7-7-7---------7-7-7-7-------------------------|
-4-4-4-4---------4-4-4-4---------4-4-4-4---------5-5-5-5-5-5-5-5-44442222|




[Chorus 2]                     x4
---------------------------------|
---------------------------------|
---------------------------------|
---------------------------------|
-------------------------4-4-2-2-|
-0-0-0-0-4-4-4-4-5-5-5-5---------|




[Bridge]                  Then                                          x3
-------------------------|------------------------------------------------|
-------------------------|------------------------------------------------|
-------------------------|------------------------------------------------|
-------------------------|------------------------------------------------|
-------------------------|-----------------0-0-0-0-0-0-0-0----------------|
-4~~~~~5~~~~~4~~~~~2~~~~~|-0-0-0-0-0-0-0-0--------------------------------|
then
--------------------------------------------------------------------------|
--------------------------------------------------------------------------|
--------------------------------------------------------------------------|
--------------------------------------------------------------------------|
-----------------0~~~~~~~~~~~~--------------------------------------------|
-0-0-0-0-0-0-0-0---------------xx-4-xx-2-xx-------------------------------|




[During Solo/And Boa-a-at Part] x8
---------------------------------|
---------------------------------|
---------------------------------|
---------------------------------|
-------------------------4-4-2-2-|
-0-0-0-0-4-4-4-4-5-5-5-5---------|




[Post-Chorus]                        x4
---------------------------------------|
---------------------------------------|
---------------------------------------|
---------------------------------------|
-----4-6-6-7-6-------------------------|
-4-7-----------7-4-4-4-7/9~\7~/9~\7~---|



[Outro]
---------------------------------------|
---------------------------------------|
---------------------------------------|
---------------------------------------|
------------4~~2~~---------------------|
-0~~4~~5~~~~------0~~4~~5~~~~~~~-------|


Thanks.


Suggest correction
Give kudos to tab author, rate the tab!
1 2 3 4 5
comments
print report bad tab
guest
You may want to rate the tab now too:
select rating
Wanna post a correction for this tab? Suggest correction