Oops, an error
Loading. Please wait.

Tongue Tied bass

version 2
version 2

Whole song

13,116 views 60 this week
2 commentsread comments
1 2 3 4 5
x 11
add to favorites
×
Save as Personal and add changes to this tab that will be seen only by you. Learn more ›
×
You can save this tab as Personal to edit and correct it or add notes. All changes will be seen only by you. Learn more »
launch autoscroll
font size
0
reset
guitar tuner
edit
Autoscroll
slow
fast
+/-
esc
set tempo
stop
Author
Difficulty
GROUPLOVE - TONGUE TIED


Intro - No Bass

Verse/Main Riff
G|---------------------------------|-----------------------------|
D|---------------------------------|-------------12--12----------|
A|----------------------------/6-8-|---6-6-6/13----------13\-----|
E|-4-44-4-4-/8-8\---4-44-4-4-------|-----------------------------|

Chorus (Not 100% accurate, You might want to improvise a bit here)
G|-------------|-------------|--------------|--------------------|
D|-------------|---1-3--1-3--|--1----1---1--|--5--3-5-3-5--------|
A|-3----3---3--|-1-----------|-----1---1----|--------------------|
E|----3---3----|-------------|--------------|--------------------|

Chorus pt. 2
G|--------------|
D|--------------|
A|-------3366---| X2
E|--4466--------|

At 2:16 (After the woman's verse) there is 4 bars of no bass, then the chorus line is 
played, then this is played instead of Chorus pt. 2:
G|-----------------------|
D|-----------/66666666---|
A|-----------------------|
E|--44444444-------------|

Interlude
G|------3-5-|----------|-----------|
D|--3-6-----|-----3----|-1--1--1---|
A|----------|-3-6---6--|-----------|
E|----------|----------|-----------|


Outro  (He again improvises during this, so you can add in parts from the interlude and 
the original chorus if you want)

For the first two times
G|--------------------3-5-3-5--------------------------|
D|--666666-86\---3333----------------------------------|
A|----------------------------333-6--8-6-8-66666666----|
E|-----------------------------------------------------|

For the rest of the outro
G|-----------------------------------------------------|
D|--66666666\---33333333-------------------------------|
A|------------------------33333355-66666666------------|
E|-----------------------------------------------------|

OUTRO
G|-------------------------------|
D|---------------------------1---|
A|-------------------3-----------|
E|---4-------1-------------------|

END

Thank you, I hope this helps :)

            
            
Suggest correction
Creating personal tab
Creating personal tab
You can edit any tab online and save it as your Personal.

You can edit, replace or remove any tab part or add personal notes – all changes will be seen only by you.

Personal tabs can be accessed anytime from any device, even offline.
Learn more »
comments
print report bad tab
2 comments total.
0 reply
travytrav 10 Aug 17, 2012 09:52 PM

Over all this is a pretty nice tab. Good job :)

0 reply
FrontLineBass 135 Jul 19, 2013 08:58 AM

Aw thankyou :D

guest
You may want to rate the tab now too:
select rating
Wanna post a correction for this tab? Suggest correction