Oops, an error
Loading. Please wait.

Traumatized Bass Tab

10 views 3 this week
no commentswrite comment
1 2 3 4 5
3 more votes to show rating
add to favorites
launch autoscroll
font size
0
reset
guitar tuner
Autoscroll
slow
fast
+/-
esc
set tempo
stop
Help us to improve Ultimate-Guitar.com Take our survey!
×
Author
Difficulty
About this tab version
First original bass tab of this song :). Was this info helpful? Yes No
====================================================================================
                               Traumatized - Grouplove
====================================================================================

[Intro]               x2
------------------------|
------------------------|
-4~~4------2~~2---------|
------2~~2------5-5-5~~~|




[Verse 1]                                                                                 x2
--------------------------------------------------------------------------------------------|
--------------------------------------------------------------------------------------------|
-4~~4------2~~2------4~~4------2~~2---------4~~4------2~~2----------------------------------|
------2~~2------5~~5------2~~2------5-5-5\\------2~~2------5~~5-4~~4-4~~4-4-4-2-2-2-2-2--2--|




[Chorus]
--------------------------------------------------------------------------------------------|
--------------------------------------------------------------------------------------------|
---------------0~~0-----------------------------0~~0----------------------------------------|
-0~~0-0~~0-0-0------2~~2-2~~2-2-2-0~~0-0~~0-0-0------2~~2-2~~2-2-2--------------------------|
|
--------------------------------------------------------------------------------------------|
--------------------------------------------------------------------------------------------|
---------------0~~0---------------------0~~0------------------------------------------------|
-0~~0-0~~0-0-0------2~~2--0~~0-0~~0-0-0------2~~2-2~~2-2-2----------------------------------|




[Verse 2] (Very similar to the first one                                                      
--------------------------------------------------------------------------------------------|
--------------------------------------------------------------------------------------------|
-4~~4------2~~2------4~~4------2~~2---------4~~4------2~~2----------------------------------|
------2~~2------5~~5------2~~2------5-5-5\\------2~~2------5~~5-4~~4-4~~4-4-4-2-2-2-2-2--2--|




[Chorus 2]
--------------------------------------------------------------------------------------------|
--------------------------------------------------------------------------------------------|
---------------0~~0-----------------------------0~~0----------------------------------------|
-0~~0-0~~0-0-0------2~~2-2~~2-2-2-0~~0-0~~0-0-0------2~~2-2~~2-2-2--------------------------|
|
--------------------------------------------------------------------------------------------|
--------------------------------------------------------------------------------------------|
---------------0~~0---------------------0~~0---------------0-0-0-0-0-0-0-0------------------|
-0~~0-0~~0-0-0------2~~2--0~~0-0~~0-0-0------2~~2-2~~2-2-2----------------------------------|




[Bridge] (Come in on the 3rd measure with drums)
--------------------------------------------------------------------------------------------|
--------------------------------------------------------------------------------------------|
--0~~~~~~~~---------4~~~~~~~~---------0~~~~~~~~---------4~~~~~~~~---------0-0-0-0-0-0etc--0-|
-----------2~~~~~~~~---------0~~~~~~~~---------2~~~~~~~~---------0~~~~~~~~------------------|



[Solo]
--------------------------------------------------------------------------------------------|
--------------------------------------------------------------------------------------------|
-4~~4------2~~2------4~~4------2~~2---------4~~4------2~~2-----------------------(ten twos)-|
------2~~2------5~~5------2~~2------5-5-5\\------2~~2------5~~5-4~~4-4~~4-4-4-222-2-2-2--2-2|




[Last Chorus ]
--------------------------------------------------------------------------------------------|
--------------------------------------------------------------------------------------------|
---------------0~~0-----------------------------0~~0----------------------------------------|
-0~~0-0~~0-0-0------2~~2-2~~2-2-2-0~~0-0~~0-0-0------2~~2-2~~2-2-2--------------------------|
|
--------------------------------------------------------------------------------------------|
--------------------------------------------------------------------------------------------|
---------------0~~0---------------------0~~0---------------0-0-0-0-0-0-0-0------------------|
-0~~0-0~~0-0-0------2~~2--0~~0-0~~0-0-0------2~~2-2~~2-2-2----------------------------------|
|
--------------------------------------------------------------------------------------------|
--------------------------------------------------------------------------------------------|
---------------0~~0---------------------0~~0---------------0-0-0-0-0-0-0-0-0-0-0-0-0--0-----|
-0~~0-0~~0-0-0------2~~2--0~~0-0~~0-0-0------2~~2-2~~2-2-2------------------------------0~~~|


Thanks. :)
Suggest correction
Give kudos to tab author, rate the tab!
1 2 3 4 5
comments
print report bad tab
guest
You may want to rate the tab now too:
select rating
Wanna post a correction for this tab? Suggest correction