Oops, an error
Loading. Please wait.

Mister Magic tab

version 2
version 2

Whole song

6,026 views 15 this week
1 commentread comment
1 2 3 4 5
x 5
add to favorites
×
Save as Personal and add changes to this tab that will be seen only by you. Learn more ›
×
You can save this tab as Personal to edit and correct it or add notes. All changes will be seen only by you. Learn more »
launch autoscroll
font size
0
reset
how to read this tab
guitar tuner
edit
Autoscroll
slow
fast
+/-
esc
set tempo
stop
Key: Cm

Intro:

|------------------------------|
|------------------------------|
|-10p8-------------88---7-88---|  2x
|------12p10--8p7--77-7--------|
|------------------88----------|
|------------------------------|

After saxophone starts:
                                 Ab            Bb
|------------------------------|-4-4-x-x-4-x-x--6\--|
|------------------------------|-4-4-x-x-4-x-x--6\--|
|-10p8-------------88---7-88---|-5-5-x-x-5-x-x--7\--|  
|------12p10--8p7--77-7--------|-6-6-x-x-6-x-x--8\--|
|------------------88----------|-6-6-x-x-6-x-x--8\--|
|------------------------------|-4-4-x-x-4-x-x--6\--|
                                 Bbm7 Eb9 
|------------------------------|---6------6---------|
|------------------------------|---6------6---------|
|-10p8-------------------------|---6------6---------|  
|------12p10--8p7--------------|---6----5-----------|
|------------------------------|---8--6-------------|
|------------------------------|-6------------------|
   Abmaj7   G7#5
|--4--4--4--3----|
|--4--4--4--3----|
|--5--5--5--4----|
|--5--5--6--3----|
|--6--6--6--6----|
|--4--4--4--3----|

|------------------------------|
|------------------------------|
|-10p8-------------88---7-88---|
|------12p10--8p7--77-7--------|
|------------------88----------|
|------------------------------|

Ebmaj7       Abmaj7
|-3--3--3--3-|--4--4--4--4-|
|-3--3--3--3-|--4--4--4--4-|
|-3--3--3--3-|--5--5--5--5-| 3x
|-1--1--1--1-|--5--5--5--5-|
|------------|--6--6--6--6-|
|------------|--4--4--4--4-|

  Cm7             F9
|-8--x--8--8--8--|-8-x--8--8--8--|
|-8--x--8--8--8--|-8-x--8--8--8--|
|-8--x--8--8--8--|-8-x--8--8--8--| repeat until the end of the song
|-8--x--8--8--8--|-7-x--7--7--7--|
|-10-x--10-10-10-|-8-x--8--8--8--|
|-8--x--8--8--8--|---------------|

For some variations, the F9 chord can also be played like this:
8               8 
8               10
8  (F7sus2) or  8    (F7)
10              10 
8               8
x               x

have fun

            
            
Suggest correction
Creating personal tab
Creating personal tab
You can edit any tab online and save it as your Personal.

You can edit, replace or remove any tab part or add personal notes – all changes will be seen only by you.

Personal tabs can be accessed anytime from any device, even offline.
Learn more »
comments
print report bad tab
1 comment total.
0 reply
ignaciomendez 1,468 Mar 16, 2015 12:22 PM

Great tab man. I think the 8p7 in the intro might be accompanied with a "8" in the G string to harmonize. Would also love to see the G7sus4 (G7#9) hits in here! They transition in and out of the solos. Overall really solid though.

guest
Wanna post a correction for this tab? Suggest correction