Oops, an error
Loading. Please wait.

Work In Progress chords

by Grubs
43 views 1 this week
no commentswrite comment
1 2 3 4 5
3 more votes to show rating
add to favorites
×
Save as Personal and add changes to this tab that will be seen only by you. Learn more ›
×
You can save this tab as Personal to edit and correct it or add notes. All changes will be seen only by you. Learn more »
launch autoscroll
font size
0
reset
transpose
0
reset
display chords
guitar tuner
edit
Autoscroll
slow
fast
+/-
esc
set tempo
stop
Author
Strumming
There is no strumming pattern for this song yet. and get +5 IQ
e|----9---------9-----------9---------9--------------------------------------|
B|--------9---------9-9---------9---------9----------------------------------|
G|--9---9-----9---9-------9---9-----9---9---11-9-----------------------------|
D|---------------------------------------------------------------------------|
A|---------------------------------------------------------------------------|
E|---------------------------------------------------------------------------|
    E

E B         A
I have some words to be writing
E      B            A
I have stains on my jeans
E   B          A
The clothes on my bedroom floor
     E          B        A
Have been there since January

B          F#m                   A                  B
I focus on myself swimming every day so good for my health

e|----9---------9-----------9---------9--------------------------------------|
B|--------9---------9-9---------9---------9----------------------------------|
G|--9---9-----9---9-------9---9-----9---9---11-9-----------------------------|
D|---------------------------------------------------------------------------|
A|---------------------------------------------------------------------------|
E|---------------------------------------------------------------------------|
    E                G#m  E                 G#m

E B          A
I can't concentrate on one thing
E    B       A
I am reading her words
E B       A
I met her too every time 
    E        B       A
She makes me feel so much worse

B          F#m                   A                  B
I focus on myself swimming every day so good for my health

A      G#m     E
I am a work in progress
A       G#m      E
I am progressing slowly
A          G#m     F#m E
She is the perfect person
F#m A
She She

e|----9---------9-----------9---------9--------------------------------------|
B|--------9---------9-9---------9---------9-9--------------------------------|
G|--9---9-----9---9-------9---9-----9---9------------------------------------|
D|---------------------------------------------------------------------------|
A|---------------------------------------------------------------------------|  2x
E|---------------------------------------------------------------------------|
    E                G#m  E                 G#m

B          F#m                   A                  B
I focus on myself swimming every day so good for my health
B          F#m                   A                  B
I focus on myself swimming every day so good for my health
A      G#m     E
I am a work in progress
A       G#m      E
I am progressing slowly
A          G#m     F#m E
She is the perfect person
F#m A
She She

E

            
            
Suggest correction
Creating personal tab
Creating personal tab
You can edit any tab online and save it as your Personal.

You can edit, replace or remove any tab part or add personal notes – all changes will be seen only by you.

Personal tabs can be accessed anytime from any device, even offline.
Learn more »
Give kudos to tab author, rate the tab!
1 2 3 4 5
comments
print report bad tab
guest
You may want to rate the tab now too:
select rating
Wanna post a correction for this tab? Suggest correction