Oops, an error
Loading. Please wait.

A Llorar A Otra Parte Tab

by Grupo 5
48 views 1 this week
no commentswrite comment
1 2 3 4 5
3 more votes to show rating
add to favorites
launch autoscroll
font size
0
reset
how to read this tab
guitar tuner
×
Best way to learn
"A Llorar A Otra Parte"
Autoscroll
slow
fast
+/-
esc
set tempo
stop
A llorar a otra parte.
Grupo 5
Transcripcion de Juan Diego

Esta cancion es asi, los acordes son los correctos,
como siempre XD... y solo escuchen pa ke agarren el
compas, y listo, ahi les va...

intro: D Bm G A / D Bm G Em A

1|----------------------------------------------------------------|
2|-------2-5-3333-2-5-3.--5-3333-2-5-3.------7-88------7-88-------|
3|--22-4--------------------------------77-9------77-7------77-7--|
4|----------------------------------------------------------------|
5|----------------------------------------------------------------|
6|----------------------------------------------------------------|

1|------------|
2|------------|
3|--77-6-4-6--|
4|------------|
5|------------|
6|------------|

1|---------------------------------------|
2|-------2-5-3333-2-5-3.--5-3333-2-5-3.--|
3|--22-4---------------------------------|
4|---------------------------------------|
5|---------------------------------------|
6|---------------------------------------|

1|--------------------------------------------------------|
2|------7-88888-777---------------7-88888-10-10-10-8-7-8--|
3|--7-9-------------999-------7-9-------------------------|
4|--------------------------------------------------------|
5|--------------------------------------------------------|
6|--------------------------------------------------------|

D                       A
Sí, claro que estoy llorando,
                 Bm                                       F#m
es que acaso esperabas que hiciera una fiesta por tu despedida,
                 G                 Bm
aplaudir que te vas destrozando mi vida,
              Em                                       A
y al irte que vaya corriendo a pedirle a Dios que te bendiga,
D                  A
no, no podre perdonarte,
              Bm                                 F#m
apesar que te amo con toda mi alma me obligas a odiarte,
               G                  Bm
hoy te ries de mi, no te duele dejarme,
              Em                                     A
pero vas a volverme a buscar y te juro que voy a vengarme.


                D
Vas a besar el suelo por Dios te lo juro,
            Bm
vendras a pedirme perdon y no dudo,
           G
que mendigaras por un beso a mis labios,
           Em                     A
tu piel rogará que la toquen mis manos,
             D
se que voy gozar cuando vengas llorando,
            Bm
me voy a burlar de ti al verte arrastrando,
            G
te arrepentiras de haberme conocido,
                 Em              A
porque hoy me declaro tu peor enemigo,
               G
y lo que te mereces por abandonarme,
                     A
es que al volver te mande,
                 D
a llorar a otra parte.

*Luego todo igual otraves.

1|-------------------------------------------|
2|--77777-----10-10------10-88888-7---10-10--|
3|--------9-7--------7-9------------9--------|
4|-------------------------------------------|  2x
5|-------------------------------------------|
6|-------------------------------------------|

1|-------7~--9-10-9~--10-9-7~--777--------------------|
2|--7-10---------------------------10h12-12-12-10h12--|
3|----------------------------------------------------|
4|----------------------------------------------------|  2x
5|----------------------------------------------------|
6|----------------------------------------------------|

Y ya esta...
Bueno solo eso, y que viva la musica de calidad nacional...XD
Hasta la proxima.
Suggest correction
Give kudos to tab author, rate the tab!
1 2 3 4 5
comments
print report bad tab
guest
You may want to rate the tab now too:
select rating
Wanna post a correction for this tab? Suggest correction