Oops, an error
Loading. Please wait.

Eres Mi Bien Tab

20 views 1 this week
no commentswrite comment
1 2 3 4 5
3 more votes to show rating
add to favorites
launch autoscroll
font size
0
reset
how to read this tab
guitar tuner
Autoscroll
slow
fast
+/-
esc
set tempo
stop
Help us to improve Ultimate-Guitar.com Take our survey!
×
                         FA                 LAm
e|-12-10-----10---------------------------------
b|------13-12--13-12-10-13-------10-12-13-12-10-
G|-----------------------------10---------------
D|----------------------------------------------
A|----------------------------------------------
E|----------------------------------------------  REPETIR

      SOL
e|----15----
b|----------
G|----------


   DO                         SOL                         LAm
e|-15-15-15-15-15-15-17-15-----15---15-15-15-15-17-15----------
b|------------------------18-17-----------------------17-15-17-
G|-------------------------------------------------------------
D|-------------------------------------------------------------
A|-------------------------------------------------------------
E|-------------------------------------------------------------

                           MI
e|-------------------------------------------------------
b|-17-17-17-17-18-17-15-13-15-13-12----------------------
G|-------------------------------------------------------
D|-------------------------------------------------------
A|-------------------------------------------------------
E|-------------------------------------------------------  REPETIR


LAm
Tu amor abarca
mi mundo esta mas
en él solo tu
tienes sometida,
      SOL
a mi alma... a mi alma...
LAm
a donde vaya, en donde este
esta presente me haces sentir
    SOL
contigo...contigo...
REm
este quererte, este adorarte,
de poseerte, en la forma de amarme,
    LAm
realizan mi vida...

REm
Eres mi meta
punto de partida
antes de ti
               LAm
creo no vivía, moría...
     SOL     FA
sin ti... moría...

CORO
DO              SOL
Bien...eres mi bien...
LAm                                 MI
todo lo que viene de ti... me hace bien
DO              SOL
Bien...eres mi bien...
LAm                                 MI
todo lo que viene de ti... me hace bien

DO                           SOL
Tú sentido de mi vida...eres tú
                                  LAm
presencia que me envuelve... eres tú
                           MI
la perfecta armonía...eres tú

DO                               SOL
Tú equilibrio de mi vida... eres tú...
                            LAm
lo que nunca dejaría...solo tú
                          MI
te llevo siempre en mi corazón
Suggest correction
Give kudos to tab author, rate the tab!
1 2 3 4 5
comments
print report bad tab
guest
You may want to rate the tab now too:
select rating
Wanna post a correction for this tab? Suggest correction