Oops, an error
Loading. Please wait.

Quien Cura Tab

by Grupo 5
15 views 1 this week
no commentswrite comment
1 2 3 4 5
3 more votes to show rating
add to favorites
launch autoscroll
font size
0
reset
how to read this tab
guitar tuner
×
Best way to learn
"Quien Cura"
Autoscroll
slow
fast
+/-
esc
set tempo
stop
Quien cura
Grupo 5
Transcripcion de Juan Diego

Ahí va esta cumbia del grupo 5 ps, la cumbia peruana,
es la mejor XD...

intro: A# F D# A# F

1|----------------------------------------------------------|
2|--6-------3-6.--6-------4-6.--6-------3-4.--4-3-----------|
3|----3-3-3---------5-5-5---------3-3-3-----------5-5-3-5~--|
4|----------------------------------------------------------|
5|----------------------------------------------------------|
6|----------------------------------------------------------|

1|-----------------------------------------------------------------|
2|--6-8-6.-66-8-6.--6-8-8.-66-8-6.--4-6-4.-44-6-4.--3-3-3----------|
3|--------------------------------------------------------55-4-5~--|
4|-----------------------------------------------------------------| 2x
5|-----------------------------------------------------------------|
6|-----------------------------------------------------------------|

         A#                                      F
Te dejo libre, para que busques como dices tu destino,
         D#                                            A#
te dejo libre, no quiero ser piedra ni estorbo en tu camino,
                                                       F
no es tan fácil, desprenderme de lo que tanto y tanto quiero,
          D#                                           A#
pero que duele, cuando te arrancan el corazon quedas desecho,
           F
oscuro y desierto.

      A#                        F
Quien cura el corazon, quien lo cura,
           D#                          F
cuando de amor quedas herido, no hay alivio que tortura,
      A#                        F
Quien cura el corazon, quien lo cura,
          D#                       F
no hay doctor ni medicina, solo un oceano de dudas,
      A#                        F
Quien cura el corazon, quien lo cura,
     D#              F               A#
solo ella si regresa, calmara este dolor.


*Y ya está, luego se repite todo igual.
Bueno espero les guste...
Suggest correction
Give kudos to tab author, rate the tab!
1 2 3 4 5
comments
print report bad tab
guest
You may want to rate the tab now too:
select rating
Wanna post a correction for this tab? Suggest correction