Oops, an error
Loading. Please wait.

Te Vas Te Vas Bass

by Grupo 5
61 views 1 this week
no commentswrite comment
1 2 3 4 5
3 more votes to show rating
add to favorites
launch autoscroll
font size
0
reset
guitar tuner
×
Best way to learn
"Te Vas Te Vas"
Autoscroll
slow
fast
+/-
esc
set tempo
stop
Intro
E|--------|
A|--20/0--|
D|--------|
G|--------|

    x2     x2    x2
E|------|-----|-5---|-----|---------|
A|--1---|-5---|--7--|-5---|-5-8-----|
D|---3--|--7--|---7-|--7--|----5-7--|
G|----3-|---7-|-----|---7-|---------|

                 x2    x2
E|------|-6---|-----|-5---|-----|---------|
A|---8--|--8--|-5---|--7--|-5---|-5-53-1--|
D|--8-8-|---8-|--7--|---7-|--7--|---------|
G|------|-----|---7-|-----|---7-|---------|

                                x2
E|--5-8--|-5---|---5-|-----1-|-5---|---5-|----------|
A|-----7-|--7--|-5---|-55-3--|--7--|-5---|-5---3----|
D|-------|---7-|--7--|-------|---7-|--7--|--7---5---|
G|-------|-----|-----|-------|-----|-----|---7---5--|

Quien te despertara
E|--6---|-8-----|-------|-----|-6---|-8-----|-------|-----|
A|---8--|--10---|-8-----|-5---|--8--|--10---|-8-----|-5---|
D|----8-|----10-|--10---|--7--|---8-|----10-|--10---|--7--|
G|------|-------|----10-|---7-|-----|-------|----10-|---7-|

canciones
E|--6---|-8-----|-------|--------|-----|-5---|------|
A|---8--|--10---|-8-----|-10-----|-5---|--7--|-5----|
D|----8-|----10-|--10---|---12---|--7--|---7-|--7---|
G|------|-------|----10-|-----12-|---7-|-----|---7--|

Yo contigo
E|------|-----|-3---|-----|-----|-----|-----|------|
A|---3--|-3---|--5--|-5---|--5--|-5---|-3---|-5----|
D|--3-3-|--5--|---5-|--7--|-5-5-|--7--|--5--|--7---|
G|------|---5-|-----|---7-|-----|---7-|---5-|---7--|

y creo fuiste feliz
E|--3---|-----|-----|-----|----------|
A|---5--|-5---|-3---|-5---|-5---3----|
D|----5-|--7--|--5--|--7--|--7---5---|
G|------|---7-|---5-|---7-|---7---5--|

Y hoy te vas
     x2    x2    x2
E|------|---1-|-5---|---5-|----------|
A|--1---|--3--|--7--|-5---|-5---3----| x2
D|---3--|-3---|---7-|--7--|--7---5---|
G|----3-|-----|-----|-----|---7---5--|

Y hoy te vas                   x2
E|------|------|---1-|------|-----|---5-|----------|
A|--1---|-1----|--3--|------|--7--|-5---|-5---3----|
D|---3--|----5-|-3---|-3-56-|-7-7-|--7--|--7---5---|
G|----3-|--32--|-----|------|-----|-----|---7---5--|

    x2                  x2     x2
E|------|---1-|-------|-----|------|
A|--1---|--3--|-------|--7--|-5----|
D|---3--|-3---|-33-55-|-7-7-|--7---|
G|----3-|-----|-------|-----|---7--|

fin
                                x2
E|--5-8--|-5---|---5-|-----1-|-5---|---5-|----------|
A|-----7-|--7--|-5---|-55-3--|--7--|-5---|-5---3----|
D|-------|---7-|--7--|-------|---7-|--7--|--7---5---|
G|-------|-----|-----|-------|-----|-----|---7---5--|

E|--5-8--|-5---|---5-|-----1-|-5---|-5---------|-------5-|
A|-----7-|--7--|-5---|-55-3--|--7--|--7/17-----|-5-3-1---|
D|-------|---7-|--7--|-------|---7-|------17/5-|---------|
G|-------|-----|-----|-------|-----|-----------|---------|

se repite todo, menos el primer slide
y antes de fin
ok?
atte. miauricio gatolar
Suggest correction
Give kudos to tab author, rate the tab!
1 2 3 4 5
comments
print report bad tab
guest
You may want to rate the tab now too:
select rating
Wanna post a correction for this tab? Suggest correction