Oops, an error
Loading. Please wait.

Te Vas Te Vas Tab

by Grupo 5
51 views 1 this week
no commentswrite comment
1 2 3 4 5
3 more votes to show rating
add to favorites
launch autoscroll
font size
0
reset
how to read this tab
guitar tuner
×
Best way to learn
"Te Vas Te Vas"
Autoscroll
slow
fast
+/-
esc
set tempo
stop
     Aqui otra cancion pedida del grupo 5 bueno ps aki esta...

intro:
1)                      Bb
e|-13-13-13-13-13-12-10-13---10-13-
B|-------------------------11------
G|-----------------------10--------

                        Dm
e|-13-13-13-13-13-12-10-13----10-13-
B|--------------------------10------
G|------------------------10--------

                        A
e|-13-13-13-13-13-12-10-12---9-12--
B|-------------------------10------
G|------------------------9--------

                   Dm
e|-12-12-12-10-9---13-13-13-11-10
B|-------------------------------
G|-------------------------------   repetir todo


2)
                     A
e|-13-13-13-13-12-10-9-------
B|---------------------------
G|---------------------------

                  Dm
e|9-12-12-10-9-13-10---------
B|---------------------------
G|---------------------------

                          A
e|-10-13-13-13-13-12-10-10-9-
B|---------------------------
G|---------------------------

                Dm
e|-9-9-12-12-12-10-9-10------
B|---------------------------
G|---------------------------

 Dm            Bb
Quién te despertará,
       C             F
con un beso por las mañanas
 Dm            Bb
Dime quién te llevará
   C             F
el desayuno a la cama

 Dm            Bb
Quién te escribirá canciones
       C             F
inspiradas en nuestro amor
     Gm              Dm
Quién regalándote flores
    A                 Dm
te dice la primavera llego

F               C
Yo contigo hice un mundo
Gm           Dm
Donde reinabas tú


Gm           Dm
Y creo fuiste feliz,
C                    Dm
pero eso que quede en ti (bis)


CORO:
  Dm     Bb       Bb       Bb     F
Y hoy te vas, te vas, te vas, te vas
                A
Pero se que por algo
              Dm
me haz de recordar
           Bb
Quizás con el,
              F
me haz de comparar
              A
No creo ser mejor,
                   Dm
fui diferente nada más.(bis coro)

Repetir todo

repetir 2) con acordes a dm a dm
Suggest correction
Give kudos to tab author, rate the tab!
1 2 3 4 5
comments
print report bad tab
guest
You may want to rate the tab now too:
select rating
Wanna post a correction for this tab? Suggest correction