Oops, an error
Loading. Please wait.

Lloro En Silencio Tab

46 views 1 this week
no commentswrite comment
1 2 3 4 5
2 more votes to show rating
add to favorites
launch autoscroll
font size
0
reset
how to read this tab
guitar tuner
Autoscroll
slow
fast
+/-
esc
set tempo
stop
Help us to improve Ultimate-Guitar.com Take our survey!
×
wenu jente esta cancion para los q les gusta el grupo alegria
de Augusto Bernardillo
espero q les guste ps .... yo mismo lo sake al oido XD ai va:

la cancion creo q esta en MImenor (Em)m aver ps si XD

E-------2-------------|-------2---------------------|
B-----3---3-3---------|-----3---3-3/4-4/3-----------| repetir
G-2-4---------4-4/2---|-2-4---------------4---------|    2 veces
D-------------------4-|-----------------------------|
A---------------------|-----------------------------|    (x2)
E---------------------|-----------------------------|

E---------------------5/7-7/5----
B-5/7-7-7-7-7/5---5/7---------7--
G---------------7----------------
D--------------------------------
A--------------------------------
E--------------------------------               repetir

E--7/9-9-9-9----9-9-14-9-9/10-7-|----7-
B------------11-----------------|--7---
G-------------------------------|------         2 veces
D-------------------------------|------
E-------------------------------|------
A-------------------------------|------


E----------------10/7-7-7------------------10/7-7-7-
B------7-----7-7----------10/7-----7-----7----------
G--7-9---7-9-------------------7-9---7-9------------  repetir
D---------------------------------------------------  2 veces
A---------------------------------------------------
E---------------------------------------------------

y termina asi esta parte

E------------5/7-----|
B------7---7---------|
G--7-9---7-----------|
D--------------------|
A--------------------|
E--------------------|

espero q les salga ps jente y aver si uds tmb se animan a poner
 mas de ste genero y de otros grupos komo grupo genesis
viko y su grupo
karicia o otros mas ps cualkier consulta
o kieren tmb sakar mas temas o kompartir ideas para sakar alguna
cancion este s mi correo (os-kitar28@ ala jente tmb
que le gusta el genero chicha tmb paskualillo centella tmb sako wenu
ps les dejo y prakticar duro ps ......XD

(es importante saber notas relativas tmb)
yo no muxas pero ago el esfuerzo+
Suggest correction
Give kudos to tab author, rate the tab!
1 2 3 4 5
comments
print report bad tab
guest
You may want to rate the tab now too:
select rating
Wanna post a correction for this tab? Suggest correction