Oops, an error
Loading. Please wait.

Palomita Tab

16 views 1 this week
no commentswrite comment
1 2 3 4 5
3 more votes to show rating
add to favorites
launch autoscroll
font size
0
reset
how to read this tab
guitar tuner
Autoscroll
slow
fast
+/-
esc
set tempo
stop
Help us to improve Ultimate-Guitar.com Take our survey!
×
Hola, soy Lualanmi, y aquí les traigo otra tabs que comparto con ustedes, yaque
no la encontré en la web me puse a sacarla a oído.
Está perfecta no se preocupen.
Caso contrario me avisan para corregirla, yaque todos tenemos derecho a
equivocarnos alguna vez jejeje

La canción está en F#m.
Saludos


1.|----------------10----10/12-(/10)---------------14p12-14---|
2.|-------12-12-12----12------------10-10h12------------------|
3.|-11-11------------------------------------11---------------|
4.|-----------------------------------------------------------|
5.|-----------------------------------------------------------|
6.|-----------------------------------------------------------|


1.|----------------10----10/12--10--12/14-14---|
2.|-------12-12-12----12-----------------------|
3.|-11-11--------------------------------------|
4.|--------------------------------------------|
5.|--------------------------------------------|
6.|--------------------------------------------|


1.|-14-12h14p12--------------14-12h14p12/-9-12-12p9---------------------------|
2.|-------------15.----15---------------------------10-10/12---12-10h12p10----|
3.|-----------------14----14-----------------------------------------------11-|
4.|---------------------------------------------------------------------------|
5.|---------------------------------------------------------------------------|
6.|---------------------------------------------------------------------------|


1.|--14-12h14p12-----------------14-12h14p12/----9-12-12p9-------------------|
2.|--------------15.-----15--------------------------------10-10/12----------|
3.|-------------------14----14-----------------------------------------------|
4.|--------------------------------------------------------------------------|
5.|--------------------------------------------------------------------------|
6.|--------------------------------------------------------------------------|


1.|---17h19-19-19/21-21--17----17h19-19----------|
2.|-------------------------19-------------------|
3.|----------------------------------------------|
4.|----------------------------------------------|
5.|----------------------------------------------|
6.|----------------------------------------------|


1.|---17h19-19-19/21-21--17h19p17----17h19p17----|
2.|-------------------------------19---------19--|
3.|----------------------------------------------|
4.|----------------------------------------------|
5.|----------------------------------------------|
6.|----------------------------------------------|


1.|---17h19-19-19/21-21--17----17h19-19----------|
2.|-------------------------19-------------------|
3.|----------------------------------------------|
4.|----------------------------------------------|
5.|----------------------------------------------|
6.|----------------------------------------------|


1.|---17h19-19-19/21-21--17h19p17----17h19p17----|
2.|-------------------------------19---------19--|
3.|----------------------------------------------|
4.|----------------------------------------------|
5.|----------------------------------------------|
6.|----------------------------------------------|


1.|----14-14----14-14-------12-12----12/14-14---12h14p12-10-----------|
2.|-12-------12----------10-------10------------------------10h12-10--|
3.|-------------------------------------------------------------------|
4.|-------------------------------------------------------------------|
5.|-------------------------------------------------------------------|
6.|-------------------------------------------------------------------|


___________________________

Leyenda:

h : Hammer On
p : Hammer off
/ : Slide
. : Pausa pequeña.
(): Nota que casi ni se escucha, pero importante.


___________________________

s
Suggest correction
Give kudos to tab author, rate the tab!
1 2 3 4 5
comments
print report bad tab
guest
You may want to rate the tab now too:
select rating
Wanna post a correction for this tab? Suggest correction