Oops, an error
Loading. Please wait.

Prefiero Olvidar Tab

38 views 1 this week
no commentswrite comment
1 2 3 4 5
3 more votes to show rating
add to favorites
launch autoscroll
font size
0
reset
how to read this tab
guitar tuner
×
Best way to learn
"Prefiero Olvidar"
Autoscroll
slow
fast
+/-
esc
set tempo
stop
Saludos a toda mi gente de Potosí-Bolivia
Cualquier error por favor anganmelo saber gracias.


1<------------------------------------------------------------------------
2<--13-10-8-------8-10-13-13-10-8----13-13-15-10-10--10-15-17-15-13-15-13-
3<----------10-10-----------------10--------------------------------------
4<------------------------------------------------------------------------
5<------------------------------------------------------------------------
6<------------------------------------------------------------------------

1<------------------------------------------------------------------------
2<--13-10-8-------8-10-13-13-10-8----13-13-15-10-10--10-15-17-15-13-15-13-
3<----------10-10-----------------10--------------------------------------
4<------------------------------------------------------------------------
5<------------------------------------------------------------------------
6<------------------------------------------------------------------------


1<-----------------------------------
2<--10-8------10-8-10--10-8----------
3<-------10-7---------------10-7-----
4<-----------------------------------
5<-----------------------------------
6<-----------------------------------

Dm                        Am
Senti tus manos bese tus labios
           F           Dm
senti tu cuerpo te ise mujer
Dm                  Am
y yo soñaba que me querias
             F            Dm
crei en mis sueños y me engañe


Dm                        Am
Senti tus manos bese tus labios
           F           Dm
senti tu cuerpo te ise mujer
Dm                  Am
y yo soñaba que me querias
             F            Dm
crei en mis sueños y me engañe

Dm                      Am
Prefiero olvidar las iluciones que viviomos
     Dm                 F
no quiero obligar tu libertad

Dm                    Am
Yo siempre e perdido con la vida y los amores
  Dm                  F
hoy quiero conservar mi soledad

EN ESTA PARTE ENTRA LA ZAMPOÑA PERO PUEDES
PONERLE EL ARPEGIO DE LA GUITARRA

1<------------------------------------------------------------------------
2<--13-10-8-------8-10-13-13-10-8----13-13-15-10-10--10-15-17-15-13-15-13-
3<----------10-10-----------------10--------------------------------------
4<------------------------------------------------------------------------
5<------------------------------------------------------------------------
6<------------------------------------------------------------------------

1<------------------------------------------------------------------------
2<--13-10-8-------8-10-13-13-10-8----13-13-15-10-10--10-15-17-15-13-15-13-
3<----------10-10-----------------10--------------------------------------
4<------------------------------------------------------------------------
5<------------------------------------------------------------------------
6<------------------------------------------------------------------------


1<-----------------------------------
2<--10-8------10-8-10--10-8----------
3<-------10-7---------------10-7-----
4<-----------------------------------
5<-----------------------------------
6<-----------------------------------


Dm                       Am
Tanto as llorado tanto as hablado
           F             Dm
porque finjias darme tu amor
Dm                    Am
aora me dejas abandonado
           F               Dm
Cuando yo mas nesesito de ti

Dm                      Am
Prefiero olvidar las iluciones que viviomos
     Dm                 F
no quiero obligar tu libertad

Dm                    Am
Yo siempre e perdido con la vida y los amores
  Dm                  F          Dm Am F Am
hoy quiero conservar mi soledad
Suggest correction
Give kudos to tab author, rate the tab!
1 2 3 4 5
comments
print report bad tab
guest
You may want to rate the tab now too:
select rating
Wanna post a correction for this tab? Suggest correction