Oops, an error
Loading. Please wait.

Como Hago Tab

version 2
version 2

Whole song

15 views 1 this week
no commentswrite comment
1 2 3 4 5
3 more votes to show rating
add to favorites
×
Save as Personal and add changes to this tab that will be seen only by you. Learn more ›
×
You can save this tab as Personal to edit and correct it or add notes. All changes will be seen only by you. Learn more »
save as personal
new!
launch autoscroll
font size
0
reset
how to read this tab
guitar tuner
Autoscroll
slow
fast
+/-
esc
set tempo
stop
Como Hago seriasa esta cancion de kaliente, hecho en cumbia xq
en merenge no pasaba nada. aki esta el punteo 100% tono original

Intro:
    Dbm        B        A           E
eb|---------------------------------------------12-11----
Bb|9-9-9-10-9-7-7-7-9-7-10-10-10-12-14-12-10-14-----13---
Gb|------------------------------------------------------
Db|------------------------------------------------------
Ab|------------------------------------------------------
Eb|------------------------------------------------------

    Dbm         A          E          B
eb|12-12--12--12---12-14-12-12-14-12-12---12-12--12------
Bb|-----14--14---14--------------------14--14--14--------
Gb|------------------------------------------------------
Db|------------------------------------------------------
Ab|------------------------------------------------------
Eb|------------------------------------------------------

Me falto espacio

eb|--16-14-14-16-14-14-

Los acordes no esta en el tono original porque para mi la
cancion es bastante alta asi que le baje medio tono pero si udts.
llegan subanle p vagos. :P sugerencias a mi msn alex29_91@...


La nota k lleva un punto significa sostenido
ejm: Fm· = fa sostenido menor

Prelude
 Bm                 A
Me siento triste pues nunca llego,
 G                  D
Nunca recibi tu llamada
 Bm                 A
tuve esperanza hasta el ultimo momento,
   G                  D
Ansioso mi corazon aguardaba.

Bm                     G
Ayer me llenaste de ilusión
       D                       A
Te hable de mi soledad, me hablaste del amor,
  Bm                      G
cariño empece a sentir por ti
  D                       A
dije mi alma gemela ha llegado

Bm                  Fm·    G             D
Me equivoque, y me engañé tu amor no era para mi,
  F·                          Bm
fuiste espejismo que en mi desierto de amor yo vi,
   G                      A
te amo con locura pero estoy sin ti.


CORO:

   D                    A
Y como hago ahora para no llorar
      G
para no sufrir
     A
para olvidar.
 D                    A
Fue mi corazon inmune al amor,
     G               A
para no sentir esta soledad.

      D                    A
No quiero llorar, no quiero sufrir
   G                       A
urgente necesito que me quiera a mi
       D                    A
Hay necesito amor, quiero ser feliz,
    G                       A
Hay no quiero estar solo mi triste vivir.


       Dbm        B        A           E
e|---------------------------------------------12-11----
b|9-9-9-10-9-7-7-7-9-7-10-10-10-12-14-12-10-14-----13---
g|------------------------------------------------------
d|------------------------------------------------------
a|------------------------------------------------------
E|------------------------------------------------------

    Dbm         A          E          B
e|12-12--12--12---12-14-12-12-14-12-12---12-12--12------
b|-----14--14---14--------------------14--14--14--------
g|------------------------------------------------------
d|------------------------------------------------------
a|------------------------------------------------------
E|------------------------------------------------------

Me falto espacio

e|--16-14-14-16-14-14-


REPETIR : Prelude
(LOS MISMOS ACORDES)

Ayer me llenaste de ilusion
Te hable de mi soledad, me hablaste del amor,
cariño empece a sentir por ti
dije mi alma gemela ha llegado

Me equivoque, y me engañé, tu amor no era para mi,
fuiste espejismo que en mi desierto de amor yo vi,
te amo con locura pero estoy sin ti.

REPITE CORO:
(LOS MISMOS ACORDES)
Suggest correction
Give kudos to tab author, rate the tab!
1 2 3 4 5
comments
print report bad tab
guest
Wanna post a correction for this tab? Suggest correction